0
SECTION
2
HEADER
9
$ACADVER
1
AC1009
0
ENDSEC
0
SECTION
2
TABLES
0
TABLE
2
LAYER
70
2
0
LAYER
2
TRAV_149
70
64
62
4
6
CONTINUOUS
0
LAYER
2
001
70
64
62
4
6
CONTINUOUS
0
ENDTAB
0
ENDSEC
0
SECTION
2
ENTITIES
0
POLYLINE
8
TRAV_149
62
0
66
1
70
9
0
VERTEX
8
TRAV_149
10
127.500000
20
935.000000
30
685.001093
0
VERTEX
8
TRAV_149
10
127.452434
20
935.000000
30
683.911646
0
VERTEX
8
TRAV_149
10
127.452434
20
950.000000
30
683.911646
0
VERTEX
8
TRAV_149
10
127.500000
20
950.000000
30
685.001093
0
SEQEND
0
POLYLINE
8
TRAV_149
62
0
66
1
70
9
0
VERTEX
8
TRAV_149
10
127.452434
20
935.000000
30
683.911646
0
VERTEX
8
TRAV_149
10
127.310097
20
935.000000
30
682.830490
0
VERTEX
8
TRAV_149
10
127.310097
20
950.000000
30
682.830490
0
VERTEX
8
TRAV_149
10
127.452434
20
950.000000
30
683.911646
0
SEQEND
0
POLYLINE
8
TRAV_149
62
0
66
1
70
9
0
VERTEX
8
TRAV_149
10
127.310097
20
935.000000
30
682.830490
0
VERTEX
8
TRAV_149
10
127.074073
20
935.000000
30
681.765855
0
VERTEX
8
TRAV_149
10
127.074073
20
950.000000
30
681.765855
0
VERTEX
8
TRAV_149
10
127.310097
20
950.000000
30
682.830490
0
SEQEND
0
POLYLINE
8
TRAV_149
62
0
66
1
70
9
0
VERTEX
8
TRAV_149
10
127.074073
20
935.000000
30
681.765855
0
VERTEX
8
TRAV_149
10
126.746158
20
935.000000
30
680.725841
0
VERTEX
8
TRAV_149
10
126.746158
20
950.000000
30
680.725841
0
VERTEX
8
TRAV_149
10
127.074073
20
950.000000
30
681.765855
0
SEQEND
0
POLYLINE
8
TRAV_149
62
0
66
1
70
9
0
VERTEX
8
TRAV_149
10
126.746158
20
935.000000
30
680.725841
0
VERTEX
8
TRAV_149
10
126.328847
20
935.000000
30
679.718364
0
VERTEX
8
TRAV_149
10
126.328847
20
950.000000
30
679.718364
0
VERTEX
8
TRAV_149
10
126.746158
20
950.000000
30
680.725841
0
SEQEND
0
POLYLINE
8
TRAV_149
62
0
66
1
70
9
0
VERTEX
8
TRAV_149
10
126.328847
20
935.000000
30
679.718364
0
VERTEX
8
TRAV_149
10
125.825318
20
935.000000
30
678.751093
0
VERTEX
8
TRAV_149
10
125.825318
20
950.000000
30
678.751093
0
VERTEX
8
TRAV_149
10
126.328847
20
950.000000
30
679.718364
0
SEQEND
0
POLYLINE
8
TRAV_149
62
0
66
1
70
9
0
VERTEX
8
TRAV_149
10
125.825318
20
935.000000
30
678.751093
0
VERTEX
8
TRAV_149
10
125.239401
20
935.000000
30
677.831387
0
VERTEX
8
TRAV_149
10
125.239401
20
950.000000
30
677.831387
0
VERTEX
8
TRAV_149
10
125.825318
20
950.000000
30
678.751093
0
SEQEND
0
POLYLINE
8
TRAV_149
62
0
66
1
70
9
0
VERTEX
8
TRAV_149
10
125.239401
20
935.000000
30
677.831387
0
VERTEX
8
TRAV_149
10
124.575556
20
935.000000
30
676.966248
0
VERTEX
8
TRAV_149
10
124.575556
20
950.000000
30
676.966248
0
VERTEX
8
TRAV_149
10
125.239401
20
950.000000
30
677.831387
0
SEQEND
0
POLYLINE
8
TRAV_149
62
0
66
1
70
9
0
VERTEX
8
TRAV_149
10
124.575556
20
935.000000
30
676.966248
0
VERTEX
8
TRAV_149
10
123.838835
20
935.000000
30
676.162258
0
VERTEX
8
TRAV_149
10
123.838835
20
950.000000
30
676.162258
0
VERTEX
8
TRAV_149
10
124.575556
20
950.000000
30
676.966248
0
SEQEND
0
POLYLINE
8
TRAV_149
62
0
66
1
70
9
0
VERTEX
8
TRAV_149
10
123.838835
20
935.000000
30
676.162258
0
VERTEX
8
TRAV_149
10
123.034845
20
935.000000
30
675.425537
0
VERTEX
8
TRAV_149
10
123.034845
20
950.000000
30
675.425537
0
VERTEX
8
TRAV_149
10
123.838835
20
950.000000
30
676.162258
0
SEQEND
0
POLYLINE
8
TRAV_149
62
0
66
1
70
9
0
VERTEX
8
TRAV_149
10
123.034845
20
935.000000
30
675.425537
0
VERTEX
8
TRAV_149
10
122.169705
20
935.000000
30
674.761692
0
VERTEX
8
TRAV_149
10
122.169705
20
950.000000
30
674.761692
0
VERTEX
8
TRAV_149
10
123.034845
20
950.000000
30
675.425537
0
SEQEND
0
POLYLINE
8
TRAV_149
62
0
66
1
70
9
0
VERTEX
8
TRAV_149
10
122.169705
20
935.000000
30
674.761692
0
VERTEX
8
TRAV_149
10
121.250000
20
935.000000
30
674.175775
0
VERTEX
8
TRAV_149
10
121.250000
20
950.000000
30
674.175775
0
VERTEX
8
TRAV_149
10
122.169705
20
950.000000
30
674.761692
0
SEQEND
0
POLYLINE
8
TRAV_149
62
0
66
1
70
9
0
VERTEX
8
TRAV_149
10
121.250000
20
935.000000
30
674.175775
0
VERTEX
8
TRAV_149
10
120.282728
20
935.000000
30
673.672245
0
VERTEX
8
TRAV_149
10
120.282728
20
950.000000
30
673.672245
0
VERTEX
8
TRAV_149
10
121.250000
20
950.000000
30
674.175775
0
SEQEND
0
POLYLINE
8
TRAV_149
62
0
66
1
70
9
0
VERTEX
8
TRAV_149
10
120.282728
20
935.000000
30
673.672245
0
VERTEX
8
TRAV_149
10
119.275252
20
935.000000
30
673.254935
0
VERTEX
8
TRAV_149
10
119.275252
20
950.000000
30
673.254935
0
VERTEX
8
TRAV_149
10
120.282728
20
950.000000
30
673.672245
0
SEQEND
0
POLYLINE
8
TRAV_149
62
0
66
1
70
9
0
VERTEX
8
TRAV_149
10
119.275252
20
935.000000
30
673.254935
0
VERTEX
8
TRAV_149
10
118.235238
20
935.000000
30
672.927020
0
VERTEX
8
TRAV_149
10
118.235238
20
950.000000
30
672.927020
0
VERTEX
8
TRAV_149
10
119.275252
20
950.000000
30
673.254935
0
SEQEND
0
POLYLINE
8
TRAV_149
62
0
66
1
70
9
0
VERTEX
8
TRAV_149
10
118.235238
20
935.000000
30
672.927020
0
VERTEX
8
TRAV_149
10
117.170602
20
935.000000
30
672.690996
0
VERTEX
8
TRAV_149
10
117.170602
20
950.000000
30
672.690996
0
VERTEX
8
TRAV_149
10
118.235238
20
950.000000
30
672.927020
0
SEQEND
0
POLYLINE
8
TRAV_149
62
0
66
1
70
9
0
VERTEX
8
TRAV_149
10
117.170602
20
935.000000
30
672.690996
0
VERTEX
8
TRAV_149
10
116.089447
20
935.000000
30
672.548659
0
VERTEX
8
TRAV_149
10
116.089447
20
950.000000
30
672.548659
0
VERTEX
8
TRAV_149
10
117.170602
20
950.000000
30
672.690996
0
SEQEND
0
POLYLINE
8
TRAV_149
62
0
66
1
70
9
0
VERTEX
8
TRAV_149
10
116.089447
20
935.000000
30
672.548659
0
VERTEX
8
TRAV_149
10
115.000000
20
935.000000
30
672.501093
0
VERTEX
8
TRAV_149
10
115.000000
20
950.000000
30
672.501093
0
VERTEX
8
TRAV_149
10
116.089447
20
950.000000
30
672.548659
0
SEQEND
0
POLYLINE
8
TRAV_149
62
0
66
1
70
9
0
VERTEX
8
TRAV_149
10
115.000000
20
935.000000
30
672.501093
0
VERTEX
8
TRAV_149
10
113.910553
20
935.000000
30
672.548659
0
VERTEX
8
TRAV_149
10
113.910553
20
950.000000
30
672.548659
0
VERTEX
8
TRAV_149
10
115.000000
20
950.000000
30
672.501093
0
SEQEND
0
POLYLINE
8
TRAV_149
62
0
66
1
70
9
0
VERTEX
8
TRAV_149
10
113.910553
20
935.000000
30
672.548659
0
VERTEX
8
TRAV_149
10
112.829398
20
935.000000
30
672.690996
0
VERTEX
8
TRAV_149
10
112.829398
20
950.000000
30
672.690996
0
VERTEX
8
TRAV_149
10
113.910553
20
950.000000
30
672.548659
0
SEQEND
0
POLYLINE
8
TRAV_149
62
0
66
1
70
9
0
VERTEX
8
TRAV_149
10
112.829398
20
935.000000
30
672.690996
0
VERTEX
8
TRAV_149
10
111.764762
20
935.000000
30
672.927020
0
VERTEX
8
TRAV_149
10
111.764762
20
950.000000
30
672.927020
0
VERTEX
8
TRAV_149
10
112.829398
20
950.000000
30
672.690996
0
SEQEND
0
POLYLINE
8
TRAV_149
62
0
66
1
70
9
0
VERTEX
8
TRAV_149
10
111.764762
20
935.000000
30
672.927020
0
VERTEX
8
TRAV_149
10
110.724748
20
935.000000
30
673.254935
0
VERTEX
8
TRAV_149
10
110.724748
20
950.000000
30
673.254935
0
VERTEX
8
TRAV_149
10
111.764762
20
950.000000
30
672.927020
0
SEQEND
0
POLYLINE
8
TRAV_149
62
0
66
1
70
9
0
VERTEX
8
TRAV_149
10
110.724748
20
935.000000
30
673.254935
0
VERTEX
8
TRAV_149
10
109.717272
20
935.000000
30
673.672245
0
VERTEX
8
TRAV_149
10
109.717272
20
950.000000
30
673.672245
0
VERTEX
8
TRAV_149
10
110.724748
20
950.000000
30
673.254935
0
SEQEND
0
POLYLINE
8
TRAV_149
62
0
66
1
70
9
0
VERTEX
8
TRAV_149
10
109.717272
20
935.000000
30
673.672245
0
VERTEX
8
TRAV_149
10
108.750000
20
935.000000
30
674.175775
0
VERTEX
8
TRAV_149
10
108.750000
20
950.000000
30
674.175775
0
VERTEX
8
TRAV_149
10
109.717272
20
950.000000
30
673.672245
0
SEQEND
0
POLYLINE
8
TRAV_149
62
0
66
1
70
9
0
VERTEX
8
TRAV_149
10
108.750000
20
935.000000
30
674.175775
0
VERTEX
8
TRAV_149
10
107.830295
20
935.000000
30
674.761692
0
VERTEX
8
TRAV_149
10
107.830295
20
950.000000
30
674.761692
0
VERTEX
8
TRAV_149
10
108.750000
20
950.000000
30
674.175775
0
SEQEND
0
POLYLINE
8
TRAV_149
62
0
66
1
70
9
0
VERTEX
8
TRAV_149
10
107.830295
20
935.000000
30
674.761692
0
VERTEX
8
TRAV_149
10
106.965155
20
935.000000
30
675.425537
0
VERTEX
8
TRAV_149
10
106.965155
20
950.000000
30
675.425537
0
VERTEX
8
TRAV_149
10
107.830295
20
950.000000
30
674.761692
0
SEQEND
0
POLYLINE
8
TRAV_149
62
0
66
1
70
9
0
VERTEX
8
TRAV_149
10
106.965155
20
935.000000
30
675.425537
0
VERTEX
8
TRAV_149
10
106.161165
20
935.000000
30
676.162258
0
VERTEX
8
TRAV_149
10
106.161165
20
950.000000
30
676.162258
0
VERTEX
8
TRAV_149
10
106.965155
20
950.000000
30
675.425537
0
SEQEND
0
POLYLINE
8
TRAV_149
62
0
66
1
70
9
0
VERTEX
8
TRAV_149
10
106.161165
20
935.000000
30
676.162258
0
VERTEX
8
TRAV_149
10
105.424444
20
935.000000
30
676.966248
0
VERTEX
8
TRAV_149
10
105.424444
20
950.000000
30
676.966248
0
VERTEX
8
TRAV_149
10
106.161165
20
950.000000
30
676.162258
0
SEQEND
0
POLYLINE
8
TRAV_149
62
0
66
1
70
9
0
VERTEX
8
TRAV_149
10
105.424444
20
935.000000
30
676.966248
0
VERTEX
8
TRAV_149
10
104.760599
20
935.000000
30
677.831387
0
VERTEX
8
TRAV_149
10
104.760599
20
950.000000
30
677.831387
0
VERTEX
8
TRAV_149
10
105.424444
20
950.000000
30
676.966248
0
SEQEND
0
POLYLINE
8
TRAV_149
62
0
66
1
70
9
0
VERTEX
8
TRAV_149
10
104.760599
20
935.000000
30
677.831387
0
VERTEX
8
TRAV_149
10
104.174682
20
935.000000
30
678.751093
0
VERTEX
8
TRAV_149
10
104.174682
20
950.000000
30
678.751093
0
VERTEX
8
TRAV_149
10
104.760599
20
950.000000
30
677.831387
0
SEQEND
0
POLYLINE
8
TRAV_149
62
0
66
1
70
9
0
VERTEX
8
TRAV_149
10
104.174682
20
935.000000
30
678.751093
0
VERTEX
8
TRAV_149
10
103.671153
20
935.000000
30
679.718364
0
VERTEX
8
TRAV_149
10
103.671153
20
950.000000
30
679.718364
0
VERTEX
8
TRAV_149
10
104.174682
20
950.000000
30
678.751093
0
SEQEND
0
POLYLINE
8
TRAV_149
62
0
66
1
70
9
0
VERTEX
8
TRAV_149
10
103.671153
20
935.000000
30
679.718364
0
VERTEX
8
TRAV_149
10
103.253842
20
935.000000
30
680.725841
0
VERTEX
8
TRAV_149
10
103.253842
20
950.000000
30
680.725841
0
VERTEX
8
TRAV_149
10
103.671153
20
950.000000
30
679.718364
0
SEQEND
0
POLYLINE
8
TRAV_149
62
0
66
1
70
9
0
VERTEX
8
TRAV_149
10
103.253842
20
935.000000
30
680.725841
0
VERTEX
8
TRAV_149
10
102.925927
20
935.000000
30
681.765855
0
VERTEX
8
TRAV_149
10
102.925927
20
950.000000
30
681.765855
0
VERTEX
8
TRAV_149
10
103.253842
20
950.000000
30
680.725841
0
SEQEND
0
POLYLINE
8
TRAV_149
62
0
66
1
70
9
0
VERTEX
8
TRAV_149
10
102.925927
20
935.000000
30
681.765855
0
VERTEX
8
TRAV_149
10
102.689903
20
935.000000
30
682.830490
0
VERTEX
8
TRAV_149
10
102.689903
20
950.000000
30
682.830490
0
VERTEX
8
TRAV_149
10
102.925927
20
950.000000
30
681.765855
0
SEQEND
0
POLYLINE
8
TRAV_149
62
0
66
1
70
9
0
VERTEX
8
TRAV_149
10
102.689903
20
935.000000
30
682.830490
0
VERTEX
8
TRAV_149
10
102.547566
20
935.000000
30
683.911646
0
VERTEX
8
TRAV_149
10
102.547566
20
950.000000
30
683.911646
0
VERTEX
8
TRAV_149
10
102.689903
20
950.000000
30
682.830490
0
SEQEND
0
POLYLINE
8
TRAV_149
62
0
66
1
70
9
0
VERTEX
8
TRAV_149
10
102.547566
20
935.000000
30
683.911646
0
VERTEX
8
TRAV_149
10
102.500000
20
935.000000
30
685.001093
0
VERTEX
8
TRAV_149
10
102.500000
20
950.000000
30
685.001093
0
VERTEX
8
TRAV_149
10
102.547566
20
950.000000
30
683.911646
0
SEQEND
0
POLYLINE
8
TRAV_149
62
0
66
1
70
9
0
VERTEX
8
TRAV_149
10
102.500000
20
935.000000
30
685.001093
0
VERTEX
8
TRAV_149
10
102.547566
20
935.000000
30
686.090539
0
VERTEX
8
TRAV_149
10
102.547566
20
950.000000
30
686.090539
0
VERTEX
8
TRAV_149
10
102.500000
20
950.000000
30
685.001093
0
SEQEND
0
POLYLINE
8
TRAV_149
62
0
66
1
70
9
0
VERTEX
8
TRAV_149
10
102.547566
20
935.000000
30
686.090539
0
VERTEX
8
TRAV_149
10
102.689903
20
935.000000
30
687.171695
0
VERTEX
8
TRAV_149
10
102.689903
20
950.000000
30
687.171695
0
VERTEX
8
TRAV_149
10
102.547566
20
950.000000
30
686.090539
0
SEQEND
0
POLYLINE
8
TRAV_149
62
0
66
1
70
9
0
VERTEX
8
TRAV_149
10
102.689903
20
935.000000
30
687.171695
0
VERTEX
8
TRAV_149
10
102.925927
20
935.000000
30
688.236331
0
VERTEX
8
TRAV_149
10
102.925927
20
950.000000
30
688.236331
0
VERTEX
8
TRAV_149
10
102.689903
20
950.000000
30
687.171695
0
SEQEND
0
POLYLINE
8
TRAV_149
62
0
66
1
70
9
0
VERTEX
8
TRAV_149
10
102.925927
20
935.000000
30
688.236331
0
VERTEX
8
TRAV_149
10
103.253842
20
935.000000
30
689.276344
0
VERTEX
8
TRAV_149
10
103.253842
20
950.000000
30
689.276344
0
VERTEX
8
TRAV_149
10
102.925927
20
950.000000
30
688.236331
0
SEQEND
0
POLYLINE
8
TRAV_149
62
0
66
1
70
9
0
VERTEX
8
TRAV_149
10
103.253842
20
935.000000
30
689.276344
0
VERTEX
8
TRAV_149
10
103.671153
20
935.000000
30
690.283821
0
VERTEX
8
TRAV_149
10
103.671153
20
950.000000
30
690.283821
0
VERTEX
8
TRAV_149
10
103.253842
20
950.000000
30
689.276344
0
SEQEND
0
POLYLINE
8
TRAV_149
62
0
66
1
70
9
0
VERTEX
8
TRAV_149
10
103.671153
20
935.000000
30
690.283821
0
VERTEX
8
TRAV_149
10
104.174682
20
935.000000
30
691.251093
0
VERTEX
8
TRAV_149
10
104.174682
20
950.000000
30
691.251093
0
VERTEX
8
TRAV_149
10
103.671153
20
950.000000
30
690.283821
0
SEQEND
0
POLYLINE
8
TRAV_149
62
0
66
1
70
9
0
VERTEX
8
TRAV_149
10
104.174682
20
935.000000
30
691.251093
0
VERTEX
8
TRAV_149
10
104.760599
20
935.000000
30
692.170798
0
VERTEX
8
TRAV_149
10
104.760599
20
950.000000
30
692.170798
0
VERTEX
8
TRAV_149
10
104.174682
20
950.000000
30
691.251093
0
SEQEND
0
POLYLINE
8
TRAV_149
62
0
66
1
70
9
0
VERTEX
8
TRAV_149
10
104.760599
20
935.000000
30
692.170798
0
VERTEX
8
TRAV_149
10
105.424444
20
935.000000
30
693.035938
0
VERTEX
8
TRAV_149
10
105.424444
20
950.000000
30
693.035938
0
VERTEX
8
TRAV_149
10
104.760599
20
950.000000
30
692.170798
0
SEQEND
0
POLYLINE
8
TRAV_149
62
0
66
1
70
9
0
VERTEX
8
TRAV_149
10
105.424444
20
935.000000
30
693.035938
0
VERTEX
8
TRAV_149
10
106.161165
20
935.000000
30
693.839927
0
VERTEX
8
TRAV_149
10
106.161165
20
950.000000
30
693.839927
0
VERTEX
8
TRAV_149
10
105.424444
20
950.000000
30
693.035938
0
SEQEND
0
POLYLINE
8
TRAV_149
62
0
66
1
70
9
0
VERTEX
8
TRAV_149
10
106.161165
20
935.000000
30
693.839927
0
VERTEX
8
TRAV_149
10
106.965155
20
935.000000
30
694.576648
0
VERTEX
8
TRAV_149
10
106.965155
20
950.000000
30
694.576648
0
VERTEX
8
TRAV_149
10
106.161165
20
950.000000
30
693.839927
0
SEQEND
0
POLYLINE
8
TRAV_149
62
0
66
1
70
9
0
VERTEX
8
TRAV_149
10
106.965155
20
935.000000
30
694.576648
0
VERTEX
8
TRAV_149
10
107.830295
20
935.000000
30
695.240493
0
VERTEX
8
TRAV_149
10
107.830295
20
950.000000
30
695.240493
0
VERTEX
8
TRAV_149
10
106.965155
20
950.000000
30
694.576648
0
SEQEND
0
POLYLINE
8
TRAV_149
62
0
66
1
70
9
0
VERTEX
8
TRAV_149
10
107.830295
20
935.000000
30
695.240493
0
VERTEX
8
TRAV_149
10
108.750000
20
935.000000
30
695.826410
0
VERTEX
8
TRAV_149
10
108.750000
20
950.000000
30
695.826410
0
VERTEX
8
TRAV_149
10
107.830295
20
950.000000
30
695.240493
0
SEQEND
0
POLYLINE
8
TRAV_149
62
0
66
1
70
9
0
VERTEX
8
TRAV_149
10
108.750000
20
935.000000
30
695.826410
0
VERTEX
8
TRAV_149
10
109.717272
20
935.000000
30
696.329940
0
VERTEX
8
TRAV_149
10
109.717272
20
950.000000
30
696.329940
0
VERTEX
8
TRAV_149
10
108.750000
20
950.000000
30
695.826410
0
SEQEND
0
POLYLINE
8
TRAV_149
62
0
66
1
70
9
0
VERTEX
8
TRAV_149
10
109.717272
20
935.000000
30
696.329940
0
VERTEX
8
TRAV_149
10
110.724748
20
935.000000
30
696.747250
0
VERTEX
8
TRAV_149
10
110.724748
20
950.000000
30
696.747250
0
VERTEX
8
TRAV_149
10
109.717272
20
950.000000
30
696.329940
0
SEQEND
0
POLYLINE
8
TRAV_149
62
0
66
1
70
9
0
VERTEX
8
TRAV_149
10
110.724748
20
935.000000
30
696.747250
0
VERTEX
8
TRAV_149
10
111.764762
20
935.000000
30
697.075165
0
VERTEX
8
TRAV_149
10
111.764762
20
950.000000
30
697.075165
0
VERTEX
8
TRAV_149
10
110.724748
20
950.000000
30
696.747250
0
SEQEND
0
POLYLINE
8
TRAV_149
62
0
66
1
70
9
0
VERTEX
8
TRAV_149
10
111.764762
20
935.000000
30
697.075165
0
VERTEX
8
TRAV_149
10
112.829398
20
935.000000
30
697.311190
0
VERTEX
8
TRAV_149
10
112.829398
20
950.000000
30
697.311190
0
VERTEX
8
TRAV_149
10
111.764762
20
950.000000
30
697.075165
0
SEQEND
0
POLYLINE
8
TRAV_149
62
0
66
1
70
9
0
VERTEX
8
TRAV_149
10
112.829398
20
935.000000
30
697.311190
0
VERTEX
8
TRAV_149
10
113.910553
20
935.000000
30
697.453526
0
VERTEX
8
TRAV_149
10
113.910553
20
950.000000
30
697.453526
0
VERTEX
8
TRAV_149
10
112.829398
20
950.000000
30
697.311190
0
SEQEND
0
POLYLINE
8
TRAV_149
62
0
66
1
70
9
0
VERTEX
8
TRAV_149
10
113.910553
20
935.000000
30
697.453526
0
VERTEX
8
TRAV_149
10
115.000000
20
935.000000
30
697.501093
0
VERTEX
8
TRAV_149
10
115.000000
20
950.000000
30
697.501093
0
VERTEX
8
TRAV_149
10
113.910553
20
950.000000
30
697.453526
0
SEQEND
0
POLYLINE
8
TRAV_149
62
0
66
1
70
9
0
VERTEX
8
TRAV_149
10
115.000000
20
935.000000
30
697.501093
0
VERTEX
8
TRAV_149
10
116.089447
20
935.000000
30
697.453526
0
VERTEX
8
TRAV_149
10
116.089447
20
950.000000
30
697.453526
0
VERTEX
8
TRAV_149
10
115.000000
20
950.000000
30
697.501093
0
SEQEND
0
POLYLINE
8
TRAV_149
62
0
66
1
70
9
0
VERTEX
8
TRAV_149
10
116.089447
20
935.000000
30
697.453526
0
VERTEX
8
TRAV_149
10
117.170602
20
935.000000
30
697.311190
0
VERTEX
8
TRAV_149
10
117.170602
20
950.000000
30
697.311190
0
VERTEX
8
TRAV_149
10
116.089447
20
950.000000
30
697.453526
0
SEQEND
0
POLYLINE
8
TRAV_149
62
0
66
1
70
9
0
VERTEX
8
TRAV_149
10
117.170602
20
935.000000
30
697.311190
0
VERTEX
8
TRAV_149
10
118.235238
20
935.000000
30
697.075165
0
VERTEX
8
TRAV_149
10
118.235238
20
950.000000
30
697.075165
0
VERTEX
8
TRAV_149
10
117.170602
20
950.000000
30
697.311190
0
SEQEND
0
POLYLINE
8
TRAV_149
62
0
66
1
70
9
0
VERTEX
8
TRAV_149
10
118.235238
20
935.000000
30
697.075165
0
VERTEX
8
TRAV_149
10
119.275252
20
935.000000
30
696.747250
0
VERTEX
8
TRAV_149
10
119.275252
20
950.000000
30
696.747250
0
VERTEX
8
TRAV_149
10
118.235238
20
950.000000
30
697.075165
0
SEQEND
0
POLYLINE
8
TRAV_149
62
0
66
1
70
9
0
VERTEX
8
TRAV_149
10
119.275252
20
935.000000
30
696.747250
0
VERTEX
8
TRAV_149
10
120.282728
20
935.000000
30
696.329940
0
VERTEX
8
TRAV_149
10
120.282728
20
950.000000
30
696.329940
0
VERTEX
8
TRAV_149
10
119.275252
20
950.000000
30
696.747250
0
SEQEND
0
POLYLINE
8
TRAV_149
62
0
66
1
70
9
0
VERTEX
8
TRAV_149
10
120.282728
20
935.000000
30
696.329940
0
VERTEX
8
TRAV_149
10
121.250000
20
935.000000
30
695.826410
0
VERTEX
8
TRAV_149
10
121.250000
20
950.000000
30
695.826410
0
VERTEX
8
TRAV_149
10
120.282728
20
950.000000
30
696.329940
0
SEQEND
0
POLYLINE
8
TRAV_149
62
0
66
1
70
9
0
VERTEX
8
TRAV_149
10
121.250000
20
935.000000
30
695.826410
0
VERTEX
8
TRAV_149
10
122.169705
20
935.000000
30
695.240493
0
VERTEX
8
TRAV_149
10
122.169705
20
950.000000
30
695.240493
0
VERTEX
8
TRAV_149
10
121.250000
20
950.000000
30
695.826410
0
SEQEND
0
POLYLINE
8
TRAV_149
62
0
66
1
70
9
0
VERTEX
8
TRAV_149
10
122.169705
20
935.000000
30
695.240493
0
VERTEX
8
TRAV_149
10
123.034845
20
935.000000
30
694.576648
0
VERTEX
8
TRAV_149
10
123.034845
20
950.000000
30
694.576648
0
VERTEX
8
TRAV_149
10
122.169705
20
950.000000
30
695.240493
0
SEQEND
0
POLYLINE
8
TRAV_149
62
0
66
1
70
9
0
VERTEX
8
TRAV_149
10
123.034845
20
935.000000
30
694.576648
0
VERTEX
8
TRAV_149
10
123.838835
20
935.000000
30
693.839927
0
VERTEX
8
TRAV_149
10
123.838835
20
950.000000
30
693.839927
0
VERTEX
8
TRAV_149
10
123.034845
20
950.000000
30
694.576648
0
SEQEND
0
POLYLINE
8
TRAV_149
62
0
66
1
70
9
0
VERTEX
8
TRAV_149
10
123.838835
20
935.000000
30
693.839927
0
VERTEX
8
TRAV_149
10
124.575556
20
935.000000
30
693.035938
0
VERTEX
8
TRAV_149
10
124.575556
20
950.000000
30
693.035938
0
VERTEX
8
TRAV_149
10
123.838835
20
950.000000
30
693.839927
0
SEQEND
0
POLYLINE
8
TRAV_149
62
0
66
1
70
9
0
VERTEX
8
TRAV_149
10
124.575556
20
935.000000
30
693.035938
0
VERTEX
8
TRAV_149
10
125.239401
20
935.000000
30
692.170798
0
VERTEX
8
TRAV_149
10
125.239401
20
950.000000
30
692.170798
0
VERTEX
8
TRAV_149
10
124.575556
20
950.000000
30
693.035938
0
SEQEND
0
POLYLINE
8
TRAV_149
62
0
66
1
70
9
0
VERTEX
8
TRAV_149
10
125.239401
20
935.000000
30
692.170798
0
VERTEX
8
TRAV_149
10
125.825318
20
935.000000
30
691.251093
0
VERTEX
8
TRAV_149
10
125.825318
20
950.000000
30
691.251093
0
VERTEX
8
TRAV_149
10
125.239401
20
950.000000
30
692.170798
0
SEQEND
0
POLYLINE
8
TRAV_149
62
0
66
1
70
9
0
VERTEX
8
TRAV_149
10
125.825318
20
935.000000
30
691.251093
0
VERTEX
8
TRAV_149
10
126.328847
20
935.000000
30
690.283821
0
VERTEX
8
TRAV_149
10
126.328847
20
950.000000
30
690.283821
0
VERTEX
8
TRAV_149
10
125.825318
20
950.000000
30
691.251093
0
SEQEND
0
POLYLINE
8
TRAV_149
62
0
66
1
70
9
0
VERTEX
8
TRAV_149
10
126.328847
20
935.000000
30
690.283821
0
VERTEX
8
TRAV_149
10
126.746158
20
935.000000
30
689.276344
0
VERTEX
8
TRAV_149
10
126.746158
20
950.000000
30
689.276344
0
VERTEX
8
TRAV_149
10
126.328847
20
950.000000
30
690.283821
0
SEQEND
0
POLYLINE
8
TRAV_149
62
0
66
1
70
9
0
VERTEX
8
TRAV_149
10
126.746158
20
935.000000
30
689.276344
0
VERTEX
8
TRAV_149
10
127.074073
20
935.000000
30
688.236331
0
VERTEX
8
TRAV_149
10
127.074073
20
950.000000
30
688.236331
0
VERTEX
8
TRAV_149
10
126.746158
20
950.000000
30
689.276344
0
SEQEND
0
POLYLINE
8
TRAV_149
62
0
66
1
70
9
0
VERTEX
8
TRAV_149
10
127.074073
20
935.000000
30
688.236331
0
VERTEX
8
TRAV_149
10
127.310097
20
935.000000
30
687.171695
0
VERTEX
8
TRAV_149
10
127.310097
20
950.000000
30
687.171695
0
VERTEX
8
TRAV_149
10
127.074073
20
950.000000
30
688.236331
0
SEQEND
0
POLYLINE
8
TRAV_149
62
0
66
1
70
9
0
VERTEX
8
TRAV_149
10
127.310097
20
935.000000
30
687.171695
0
VERTEX
8
TRAV_149
10
127.452434
20
935.000000
30
686.090539
0
VERTEX
8
TRAV_149
10
127.452434
20
950.000000
30
686.090539
0
VERTEX
8
TRAV_149
10
127.310097
20
950.000000
30
687.171695
0
SEQEND
0
POLYLINE
8
TRAV_149
62
0
66
1
70
9
0
VERTEX
8
TRAV_149
10
127.452434
20
935.000000
30
686.090539
0
VERTEX
8
TRAV_149
10
127.500000
20
935.000000
30
685.001093
0
VERTEX
8
TRAV_149
10
127.500000
20
950.000000
30
685.001093
0
VERTEX
8
TRAV_149
10
127.452434
20
950.000000
30
686.090539
0
SEQEND
0
POLYLINE
8
TRAV_149
62
0
66
1
70
9
0
VERTEX
8
TRAV_149
10
127.452434
20
935.000000
30
686.090539
0
VERTEX
8
TRAV_149
10
127.310097
20
935.000000
30
687.171695
0
VERTEX
8
TRAV_149
10
127.074073
20
935.000000
30
688.236331
0
VERTEX
8
TRAV_149
10
126.746158
20
935.000000
30
689.276344
0
VERTEX
8
TRAV_149
10
126.328847
20
935.000000
30
690.283821
0
VERTEX
8
TRAV_149
10
125.825318
20
935.000000
30
691.251093
0
VERTEX
8
TRAV_149
10
125.239401
20
935.000000
30
692.170798
0
VERTEX
8
TRAV_149
10
124.575556
20
935.000000
30
693.035938
0
VERTEX
8
TRAV_149
10
123.838835
20
935.000000
30
693.839927
0
VERTEX
8
TRAV_149
10
123.034845
20
935.000000
30
694.576648
0
VERTEX
8
TRAV_149
10
122.169705
20
935.000000
30
695.240493
0
VERTEX
8
TRAV_149
10
121.250000
20
935.000000
30
695.826410
0
VERTEX
8
TRAV_149
10
120.282728
20
935.000000
30
696.329940
0
VERTEX
8
TRAV_149
10
119.275252
20
935.000000
30
696.747250
0
VERTEX
8
TRAV_149
10
118.235238
20
935.000000
30
697.075165
0
VERTEX
8
TRAV_149
10
117.170602
20
935.000000
30
697.311190
0
VERTEX
8
TRAV_149
10
116.089447
20
935.000000
30
697.453526
0
VERTEX
8
TRAV_149
10
115.000000
20
935.000000
30
697.501093
0
VERTEX
8
TRAV_149
10
113.910553
20
935.000000
30
697.453526
0
VERTEX
8
TRAV_149
10
112.829398
20
935.000000
30
697.311190
0
VERTEX
8
TRAV_149
10
111.764762
20
935.000000
30
697.075165
0
VERTEX
8
TRAV_149
10
110.724748
20
935.000000
30
696.747250
0
VERTEX
8
TRAV_149
10
109.717272
20
935.000000
30
696.329940
0
VERTEX
8
TRAV_149
10
108.750000
20
935.000000
30
695.826410
0
VERTEX
8
TRAV_149
10
107.830295
20
935.000000
30
695.240493
0
VERTEX
8
TRAV_149
10
106.965155
20
935.000000
30
694.576648
0
VERTEX
8
TRAV_149
10
106.161165
20
935.000000
30
693.839927
0
VERTEX
8
TRAV_149
10
105.424444
20
935.000000
30
693.035938
0
VERTEX
8
TRAV_149
10
104.760599
20
935.000000
30
692.170798
0
VERTEX
8
TRAV_149
10
104.174682
20
935.000000
30
691.251093
0
VERTEX
8
TRAV_149
10
103.671153
20
935.000000
30
690.283821
0
VERTEX
8
TRAV_149
10
103.253842
20
935.000000
30
689.276344
0
VERTEX
8
TRAV_149
10
102.925927
20
935.000000
30
688.236331
0
VERTEX
8
TRAV_149
10
102.689903
20
935.000000
30
687.171695
0
VERTEX
8
TRAV_149
10
102.547566
20
935.000000
30
686.090539
0
VERTEX
8
TRAV_149
10
102.500000
20
935.000000
30
685.001093
0
VERTEX
8
TRAV_149
10
102.547566
20
935.000000
30
683.911646
0
VERTEX
8
TRAV_149
10
102.689903
20
935.000000
30
682.830490
0
VERTEX
8
TRAV_149
10
102.925927
20
935.000000
30
681.765855
0
VERTEX
8
TRAV_149
10
103.253842
20
935.000000
30
680.725841
0
VERTEX
8
TRAV_149
10
103.671153
20
935.000000
30
679.718364
0
VERTEX
8
TRAV_149
10
104.174682
20
935.000000
30
678.751093
0
VERTEX
8
TRAV_149
10
104.760599
20
935.000000
30
677.831387
0
VERTEX
8
TRAV_149
10
105.424444
20
935.000000
30
676.966248
0
VERTEX
8
TRAV_149
10
106.161165
20
935.000000
30
676.162258
0
VERTEX
8
TRAV_149
10
106.965155
20
935.000000
30
675.425537
0
VERTEX
8
TRAV_149
10
107.830295
20
935.000000
30
674.761692
0
VERTEX
8
TRAV_149
10
108.750000
20
935.000000
30
674.175775
0
VERTEX
8
TRAV_149
10
109.717272
20
935.000000
30
673.672245
0
VERTEX
8
TRAV_149
10
110.724748
20
935.000000
30
673.254935
0
VERTEX
8
TRAV_149
10
111.764762
20
935.000000
30
672.927020
0
VERTEX
8
TRAV_149
10
112.829398
20
935.000000
30
672.690996
0
VERTEX
8
TRAV_149
10
113.910553
20
935.000000
30
672.548659
0
VERTEX
8
TRAV_149
10
115.000000
20
935.000000
30
672.501093
0
VERTEX
8
TRAV_149
10
116.089447
20
935.000000
30
672.548659
0
VERTEX
8
TRAV_149
10
117.170602
20
935.000000
30
672.690996
0
VERTEX
8
TRAV_149
10
118.235238
20
935.000000
30
672.927020
0
VERTEX
8
TRAV_149
10
119.275252
20
935.000000
30
673.254935
0
VERTEX
8
TRAV_149
10
120.282728
20
935.000000
30
673.672245
0
VERTEX
8
TRAV_149
10
121.250000
20
935.000000
30
674.175775
0
VERTEX
8
TRAV_149
10
122.169705
20
935.000000
30
674.761692
0
VERTEX
8
TRAV_149
10
123.034845
20
935.000000
30
675.425537
0
VERTEX
8
TRAV_149
10
123.838835
20
935.000000
30
676.162258
0
VERTEX
8
TRAV_149
10
124.575556
20
935.000000
30
676.966248
0
VERTEX
8
TRAV_149
10
125.239401
20
935.000000
30
677.831387
0
VERTEX
8
TRAV_149
10
125.825318
20
935.000000
30
678.751093
0
VERTEX
8
TRAV_149
10
126.328847
20
935.000000
30
679.718364
0
VERTEX
8
TRAV_149
10
126.746158
20
935.000000
30
680.725841
0
VERTEX
8
TRAV_149
10
127.074073
20
935.000000
30
681.765855
0
VERTEX
8
TRAV_149
10
127.310097
20
935.000000
30
682.830490
0
VERTEX
8
TRAV_149
10
127.452434
20
935.000000
30
683.911646
0
VERTEX
8
TRAV_149
10
127.500000
20
935.000000
30
685.001093
0
SEQEND
0
POLYLINE
8
TRAV_149
62
0
66
1
70
9
0
VERTEX
8
TRAV_149
10
127.500000
20
950.000000
30
685.001093
0
VERTEX
8
TRAV_149
10
127.452434
20
950.000000
30
683.911646
0
VERTEX
8
TRAV_149
10
127.310097
20
950.000000
30
682.830490
0
VERTEX
8
TRAV_149
10
127.074073
20
950.000000
30
681.765855
0
VERTEX
8
TRAV_149
10
126.746158
20
950.000000
30
680.725841
0
VERTEX
8
TRAV_149
10
126.328847
20
950.000000
30
679.718364
0
VERTEX
8
TRAV_149
10
125.825318
20
950.000000
30
678.751093
0
VERTEX
8
TRAV_149
10
125.239401
20
950.000000
30
677.831387
0
VERTEX
8
TRAV_149
10
124.575556
20
950.000000
30
676.966248
0
VERTEX
8
TRAV_149
10
123.838835
20
950.000000
30
676.162258
0
VERTEX
8
TRAV_149
10
123.034845
20
950.000000
30
675.425537
0
VERTEX
8
TRAV_149
10
122.169705
20
950.000000
30
674.761692
0
VERTEX
8
TRAV_149
10
121.250000
20
950.000000
30
674.175775
0
VERTEX
8
TRAV_149
10
120.282728
20
950.000000
30
673.672245
0
VERTEX
8
TRAV_149
10
119.275252
20
950.000000
30
673.254935
0
VERTEX
8
TRAV_149
10
118.235238
20
950.000000
30
672.927020
0
VERTEX
8
TRAV_149
10
117.170602
20
950.000000
30
672.690996
0
VERTEX
8
TRAV_149
10
116.089447
20
950.000000
30
672.548659
0
VERTEX
8
TRAV_149
10
115.000000
20
950.000000
30
672.501093
0
VERTEX
8
TRAV_149
10
113.910553
20
950.000000
30
672.548659
0
VERTEX
8
TRAV_149
10
112.829398
20
950.000000
30
672.690996
0
VERTEX
8
TRAV_149
10
111.764762
20
950.000000
30
672.927020
0
VERTEX
8
TRAV_149
10
110.724748
20
950.000000
30
673.254935
0
VERTEX
8
TRAV_149
10
109.717272
20
950.000000
30
673.672245
0
VERTEX
8
TRAV_149
10
108.750000
20
950.000000
30
674.175775
0
VERTEX
8
TRAV_149
10
107.830295
20
950.000000
30
674.761692
0
VERTEX
8
TRAV_149
10
106.965155
20
950.000000
30
675.425537
0
VERTEX
8
TRAV_149
10
106.161165
20
950.000000
30
676.162258
0
VERTEX
8
TRAV_149
10
105.424444
20
950.000000
30
676.966248
0
VERTEX
8
TRAV_149
10
104.760599
20
950.000000
30
677.831387
0
VERTEX
8
TRAV_149
10
104.174682
20
950.000000
30
678.751093
0
VERTEX
8
TRAV_149
10
103.671153
20
950.000000
30
679.718364
0
VERTEX
8
TRAV_149
10
103.253842
20
950.000000
30
680.725841
0
VERTEX
8
TRAV_149
10
102.925927
20
950.000000
30
681.765855
0
VERTEX
8
TRAV_149
10
102.689903
20
950.000000
30
682.830490
0
VERTEX
8
TRAV_149
10
102.547566
20
950.000000
30
683.911646
0
VERTEX
8
TRAV_149
10
102.500000
20
950.000000
30
685.001093
0
VERTEX
8
TRAV_149
10
102.547566
20
950.000000
30
686.090539
0
VERTEX
8
TRAV_149
10
102.689903
20
950.000000
30
687.171695
0
VERTEX
8
TRAV_149
10
102.925927
20
950.000000
30
688.236331
0
VERTEX
8
TRAV_149
10
103.253842
20
950.000000
30
689.276344
0
VERTEX
8
TRAV_149
10
103.671153
20
950.000000
30
690.283821
0
VERTEX
8
TRAV_149
10
104.174682
20
950.000000
30
691.251093
0
VERTEX
8
TRAV_149
10
104.760599
20
950.000000
30
692.170798
0
VERTEX
8
TRAV_149
10
105.424444
20
950.000000
30
693.035938
0
VERTEX
8
TRAV_149
10
106.161165
20
950.000000
30
693.839927
0
VERTEX
8
TRAV_149
10
106.965155
20
950.000000
30
694.576648
0
VERTEX
8
TRAV_149
10
107.830295
20
950.000000
30
695.240493
0
VERTEX
8
TRAV_149
10
108.750000
20
950.000000
30
695.826410
0
VERTEX
8
TRAV_149
10
109.717272
20
950.000000
30
696.329940
0
VERTEX
8
TRAV_149
10
110.724748
20
950.000000
30
696.747250
0
VERTEX
8
TRAV_149
10
111.764762
20
950.000000
30
697.075165
0
VERTEX
8
TRAV_149
10
112.829398
20
950.000000
30
697.311190
0
VERTEX
8
TRAV_149
10
113.910553
20
950.000000
30
697.453526
0
VERTEX
8
TRAV_149
10
115.000000
20
950.000000
30
697.501093
0
VERTEX
8
TRAV_149
10
116.089447
20
950.000000
30
697.453526
0
VERTEX
8
TRAV_149
10
117.170602
20
950.000000
30
697.311190
0
VERTEX
8
TRAV_149
10
118.235238
20
950.000000
30
697.075165
0
VERTEX
8
TRAV_149
10
119.275252
20
950.000000
30
696.747250
0
VERTEX
8
TRAV_149
10
120.282728
20
950.000000
30
696.329940
0
VERTEX
8
TRAV_149
10
121.250000
20
950.000000
30
695.826410
0
VERTEX
8
TRAV_149
10
122.169705
20
950.000000
30
695.240493
0
VERTEX
8
TRAV_149
10
123.034845
20
950.000000
30
694.576648
0
VERTEX
8
TRAV_149
10
123.838835
20
950.000000
30
693.839927
0
VERTEX
8
TRAV_149
10
124.575556
20
950.000000
30
693.035938
0
VERTEX
8
TRAV_149
10
125.239401
20
950.000000
30
692.170798
0
VERTEX
8
TRAV_149
10
125.825318
20
950.000000
30
691.251093
0
VERTEX
8
TRAV_149
10
126.328847
20
950.000000
30
690.283821
0
VERTEX
8
TRAV_149
10
126.746158
20
950.000000
30
689.276344
0
VERTEX
8
TRAV_149
10
127.074073
20
950.000000
30
688.236331
0
VERTEX
8
TRAV_149
10
127.310097
20
950.000000
30
687.171695
0
VERTEX
8
TRAV_149
10
127.452434
20
950.000000
30
686.090539
0
SEQEND
0
POLYLINE
8
TRAV_149
62
0
66
1
70
9
0
VERTEX
8
TRAV_149
10
1697.500000
20
0.000000
30
685.001093
0
VERTEX
8
TRAV_149
10
1697.452434
20
0.000000
30
683.911646
0
VERTEX
8
TRAV_149
10
1697.452434
20
15.000000
30
683.911646
0
VERTEX
8
TRAV_149
10
1697.500000
20
15.000000
30
685.001093
0
SEQEND
0
POLYLINE
8
TRAV_149
62
0
66
1
70
9
0
VERTEX
8
TRAV_149
10
1697.452434
20
0.000000
30
683.911646
0
VERTEX
8
TRAV_149
10
1697.310097
20
0.000000
30
682.830490
0
VERTEX
8
TRAV_149
10
1697.310097
20
15.000000
30
682.830490
0
VERTEX
8
TRAV_149
10
1697.452434
20
15.000000
30
683.911646
0
SEQEND
0
POLYLINE
8
TRAV_149
62
0
66
1
70
9
0
VERTEX
8
TRAV_149
10
1697.310097
20
0.000000
30
682.830490
0
VERTEX
8
TRAV_149
10
1697.074073
20
0.000000
30
681.765855
0
VERTEX
8
TRAV_149
10
1697.074073
20
15.000000
30
681.765855
0
VERTEX
8
TRAV_149
10
1697.310097
20
15.000000
30
682.830490
0
SEQEND
0
POLYLINE
8
TRAV_149
62
0
66
1
70
9
0
VERTEX
8
TRAV_149
10
1697.074073
20
0.000000
30
681.765855
0
VERTEX
8
TRAV_149
10
1696.746158
20
0.000000
30
680.725841
0
VERTEX
8
TRAV_149
10
1696.746158
20
15.000000
30
680.725841
0
VERTEX
8
TRAV_149
10
1697.074073
20
15.000000
30
681.765855
0
SEQEND
0
POLYLINE
8
TRAV_149
62
0
66
1
70
9
0
VERTEX
8
TRAV_149
10
1696.746158
20
0.000000
30
680.725841
0
VERTEX
8
TRAV_149
10
1696.328847
20
0.000000
30
679.718364
0
VERTEX
8
TRAV_149
10
1696.328847
20
15.000000
30
679.718364
0
VERTEX
8
TRAV_149
10
1696.746158
20
15.000000
30
680.725841
0
SEQEND
0
POLYLINE
8
TRAV_149
62
0
66
1
70
9
0
VERTEX
8
TRAV_149
10
1696.328847
20
0.000000
30
679.718364
0
VERTEX
8
TRAV_149
10
1695.825318
20
0.000000
30
678.751093
0
VERTEX
8
TRAV_149
10
1695.825318
20
15.000000
30
678.751093
0
VERTEX
8
TRAV_149
10
1696.328847
20
15.000000
30
679.718364
0
SEQEND
0
POLYLINE
8
TRAV_149
62
0
66
1
70
9
0
VERTEX
8
TRAV_149
10
1695.825318
20
0.000000
30
678.751093
0
VERTEX
8
TRAV_149
10
1695.239401
20
0.000000
30
677.831387
0
VERTEX
8
TRAV_149
10
1695.239401
20
15.000000
30
677.831387
0
VERTEX
8
TRAV_149
10
1695.825318
20
15.000000
30
678.751093
0
SEQEND
0
POLYLINE
8
TRAV_149
62
0
66
1
70
9
0
VERTEX
8
TRAV_149
10
1695.239401
20
0.000000
30
677.831387
0
VERTEX
8
TRAV_149
10
1694.575556
20
0.000000
30
676.966248
0
VERTEX
8
TRAV_149
10
1694.575556
20
15.000000
30
676.966248
0
VERTEX
8
TRAV_149
10
1695.239401
20
15.000000
30
677.831387
0
SEQEND
0
POLYLINE
8
TRAV_149
62
0
66
1
70
9
0
VERTEX
8
TRAV_149
10
1694.575556
20
0.000000
30
676.966248
0
VERTEX
8
TRAV_149
10
1693.838835
20
0.000000
30
676.162258
0
VERTEX
8
TRAV_149
10
1693.838835
20
15.000000
30
676.162258
0
VERTEX
8
TRAV_149
10
1694.575556
20
15.000000
30
676.966248
0
SEQEND
0
POLYLINE
8
TRAV_149
62
0
66
1
70
9
0
VERTEX
8
TRAV_149
10
1693.838835
20
0.000000
30
676.162258
0
VERTEX
8
TRAV_149
10
1693.034845
20
0.000000
30
675.425537
0
VERTEX
8
TRAV_149
10
1693.034845
20
15.000000
30
675.425537
0
VERTEX
8
TRAV_149
10
1693.838835
20
15.000000
30
676.162258
0
SEQEND
0
POLYLINE
8
TRAV_149
62
0
66
1
70
9
0
VERTEX
8
TRAV_149
10
1693.034845
20
0.000000
30
675.425537
0
VERTEX
8
TRAV_149
10
1692.169705
20
0.000000
30
674.761692
0
VERTEX
8
TRAV_149
10
1692.169705
20
15.000000
30
674.761692
0
VERTEX
8
TRAV_149
10
1693.034845
20
15.000000
30
675.425537
0
SEQEND
0
POLYLINE
8
TRAV_149
62
0
66
1
70
9
0
VERTEX
8
TRAV_149
10
1692.169705
20
0.000000
30
674.761692
0
VERTEX
8
TRAV_149
10
1691.250000
20
0.000000
30
674.175775
0
VERTEX
8
TRAV_149
10
1691.250000
20
15.000000
30
674.175775
0
VERTEX
8
TRAV_149
10
1692.169705
20
15.000000
30
674.761692
0
SEQEND
0
POLYLINE
8
TRAV_149
62
0
66
1
70
9
0
VERTEX
8
TRAV_149
10
1691.250000
20
0.000000
30
674.175775
0
VERTEX
8
TRAV_149
10
1690.282728
20
0.000000
30
673.672245
0
VERTEX
8
TRAV_149
10
1690.282728
20
15.000000
30
673.672245
0
VERTEX
8
TRAV_149
10
1691.250000
20
15.000000
30
674.175775
0
SEQEND
0
POLYLINE
8
TRAV_149
62
0
66
1
70
9
0
VERTEX
8
TRAV_149
10
1690.282728
20
0.000000
30
673.672245
0
VERTEX
8
TRAV_149
10
1689.275252
20
0.000000
30
673.254935
0
VERTEX
8
TRAV_149
10
1689.275252
20
15.000000
30
673.254935
0
VERTEX
8
TRAV_149
10
1690.282728
20
15.000000
30
673.672245
0
SEQEND
0
POLYLINE
8
TRAV_149
62
0
66
1
70
9
0
VERTEX
8
TRAV_149
10
1689.275252
20
0.000000
30
673.254935
0
VERTEX
8
TRAV_149
10
1688.235238
20
0.000000
30
672.927020
0
VERTEX
8
TRAV_149
10
1688.235238
20
15.000000
30
672.927020
0
VERTEX
8
TRAV_149
10
1689.275252
20
15.000000
30
673.254935
0
SEQEND
0
POLYLINE
8
TRAV_149
62
0
66
1
70
9
0
VERTEX
8
TRAV_149
10
1688.235238
20
0.000000
30
672.927020
0
VERTEX
8
TRAV_149
10
1687.170602
20
0.000000
30
672.690996
0
VERTEX
8
TRAV_149
10
1687.170602
20
15.000000
30
672.690996
0
VERTEX
8
TRAV_149
10
1688.235238
20
15.000000
30
672.927020
0
SEQEND
0
POLYLINE
8
TRAV_149
62
0
66
1
70
9
0
VERTEX
8
TRAV_149
10
1687.170602
20
0.000000
30
672.690996
0
VERTEX
8
TRAV_149
10
1686.089447
20
0.000000
30
672.548659
0
VERTEX
8
TRAV_149
10
1686.089447
20
15.000000
30
672.548659
0
VERTEX
8
TRAV_149
10
1687.170602
20
15.000000
30
672.690996
0
SEQEND
0
POLYLINE
8
TRAV_149
62
0
66
1
70
9
0
VERTEX
8
TRAV_149
10
1686.089447
20
0.000000
30
672.548659
0
VERTEX
8
TRAV_149
10
1685.000000
20
0.000000
30
672.501093
0
VERTEX
8
TRAV_149
10
1685.000000
20
15.000000
30
672.501093
0
VERTEX
8
TRAV_149
10
1686.089447
20
15.000000
30
672.548659
0
SEQEND
0
POLYLINE
8
TRAV_149
62
0
66
1
70
9
0
VERTEX
8
TRAV_149
10
1685.000000
20
0.000000
30
672.501093
0
VERTEX
8
TRAV_149
10
1683.910553
20
0.000000
30
672.548659
0
VERTEX
8
TRAV_149
10
1683.910553
20
15.000000
30
672.548659
0
VERTEX
8
TRAV_149
10
1685.000000
20
15.000000
30
672.501093
0
SEQEND
0
POLYLINE
8
TRAV_149
62
0
66
1
70
9
0
VERTEX
8
TRAV_149
10
1683.910553
20
0.000000
30
672.548659
0
VERTEX
8
TRAV_149
10
1682.829398
20
0.000000
30
672.690996
0
VERTEX
8
TRAV_149
10
1682.829398
20
15.000000
30
672.690996
0
VERTEX
8
TRAV_149
10
1683.910553
20
15.000000
30
672.548659
0
SEQEND
0
POLYLINE
8
TRAV_149
62
0
66
1
70
9
0
VERTEX
8
TRAV_149
10
1682.829398
20
0.000000
30
672.690996
0
VERTEX
8
TRAV_149
10
1681.764762
20
0.000000
30
672.927020
0
VERTEX
8
TRAV_149
10
1681.764762
20
15.000000
30
672.927020
0
VERTEX
8
TRAV_149
10
1682.829398
20
15.000000
30
672.690996
0
SEQEND
0
POLYLINE
8
TRAV_149
62
0
66
1
70
9
0
VERTEX
8
TRAV_149
10
1681.764762
20
0.000000
30
672.927020
0
VERTEX
8
TRAV_149
10
1680.724748
20
0.000000
30
673.254935
0
VERTEX
8
TRAV_149
10
1680.724748
20
15.000000
30
673.254935
0
VERTEX
8
TRAV_149
10
1681.764762
20
15.000000
30
672.927020
0
SEQEND
0
POLYLINE
8
TRAV_149
62
0
66
1
70
9
0
VERTEX
8
TRAV_149
10
1680.724748
20
0.000000
30
673.254935
0
VERTEX
8
TRAV_149
10
1679.717272
20
0.000000
30
673.672245
0
VERTEX
8
TRAV_149
10
1679.717272
20
15.000000
30
673.672245
0
VERTEX
8
TRAV_149
10
1680.724748
20
15.000000
30
673.254935
0
SEQEND
0
POLYLINE
8
TRAV_149
62
0
66
1
70
9
0
VERTEX
8
TRAV_149
10
1679.717272
20
0.000000
30
673.672245
0
VERTEX
8
TRAV_149
10
1678.750000
20
0.000000
30
674.175775
0
VERTEX
8
TRAV_149
10
1678.750000
20
15.000000
30
674.175775
0
VERTEX
8
TRAV_149
10
1679.717272
20
15.000000
30
673.672245
0
SEQEND
0
POLYLINE
8
TRAV_149
62
0
66
1
70
9
0
VERTEX
8
TRAV_149
10
1678.750000
20
0.000000
30
674.175775
0
VERTEX
8
TRAV_149
10
1677.830295
20
0.000000
30
674.761692
0
VERTEX
8
TRAV_149
10
1677.830295
20
15.000000
30
674.761692
0
VERTEX
8
TRAV_149
10
1678.750000
20
15.000000
30
674.175775
0
SEQEND
0
POLYLINE
8
TRAV_149
62
0
66
1
70
9
0
VERTEX
8
TRAV_149
10
1677.830295
20
0.000000
30
674.761692
0
VERTEX
8
TRAV_149
10
1676.965155
20
0.000000
30
675.425537
0
VERTEX
8
TRAV_149
10
1676.965155
20
15.000000
30
675.425537
0
VERTEX
8
TRAV_149
10
1677.830295
20
15.000000
30
674.761692
0
SEQEND
0
POLYLINE
8
TRAV_149
62
0
66
1
70
9
0
VERTEX
8
TRAV_149
10
1676.965155
20
0.000000
30
675.425537
0
VERTEX
8
TRAV_149
10
1676.161165
20
0.000000
30
676.162258
0
VERTEX
8
TRAV_149
10
1676.161165
20
15.000000
30
676.162258
0
VERTEX
8
TRAV_149
10
1676.965155
20
15.000000
30
675.425537
0
SEQEND
0
POLYLINE
8
TRAV_149
62
0
66
1
70
9
0
VERTEX
8
TRAV_149
10
1676.161165
20
0.000000
30
676.162258
0
VERTEX
8
TRAV_149
10
1675.424444
20
0.000000
30
676.966248
0
VERTEX
8
TRAV_149
10
1675.424444
20
15.000000
30
676.966248
0
VERTEX
8
TRAV_149
10
1676.161165
20
15.000000
30
676.162258
0
SEQEND
0
POLYLINE
8
TRAV_149
62
0
66
1
70
9
0
VERTEX
8
TRAV_149
10
1675.424444
20
0.000000
30
676.966248
0
VERTEX
8
TRAV_149
10
1674.760599
20
0.000000
30
677.831387
0
VERTEX
8
TRAV_149
10
1674.760599
20
15.000000
30
677.831387
0
VERTEX
8
TRAV_149
10
1675.424444
20
15.000000
30
676.966248
0
SEQEND
0
POLYLINE
8
TRAV_149
62
0
66
1
70
9
0
VERTEX
8
TRAV_149
10
1674.760599
20
0.000000
30
677.831387
0
VERTEX
8
TRAV_149
10
1674.174682
20
0.000000
30
678.751093
0
VERTEX
8
TRAV_149
10
1674.174682
20
15.000000
30
678.751093
0
VERTEX
8
TRAV_149
10
1674.760599
20
15.000000
30
677.831387
0
SEQEND
0
POLYLINE
8
TRAV_149
62
0
66
1
70
9
0
VERTEX
8
TRAV_149
10
1674.174682
20
0.000000
30
678.751093
0
VERTEX
8
TRAV_149
10
1673.671153
20
0.000000
30
679.718364
0
VERTEX
8
TRAV_149
10
1673.671153
20
15.000000
30
679.718364
0
VERTEX
8
TRAV_149
10
1674.174682
20
15.000000
30
678.751093
0
SEQEND
0
POLYLINE
8
TRAV_149
62
0
66
1
70
9
0
VERTEX
8
TRAV_149
10
1673.671153
20
0.000000
30
679.718364
0
VERTEX
8
TRAV_149
10
1673.253842
20
0.000000
30
680.725841
0
VERTEX
8
TRAV_149
10
1673.253842
20
15.000000
30
680.725841
0
VERTEX
8
TRAV_149
10
1673.671153
20
15.000000
30
679.718364
0
SEQEND
0
POLYLINE
8
TRAV_149
62
0
66
1
70
9
0
VERTEX
8
TRAV_149
10
1673.253842
20
0.000000
30
680.725841
0
VERTEX
8
TRAV_149
10
1672.925927
20
0.000000
30
681.765855
0
VERTEX
8
TRAV_149
10
1672.925927
20
15.000000
30
681.765855
0
VERTEX
8
TRAV_149
10
1673.253842
20
15.000000
30
680.725841
0
SEQEND
0
POLYLINE
8
TRAV_149
62
0
66
1
70
9
0
VERTEX
8
TRAV_149
10
1672.925927
20
0.000000
30
681.765855
0
VERTEX
8
TRAV_149
10
1672.689903
20
0.000000
30
682.830490
0
VERTEX
8
TRAV_149
10
1672.689903
20
15.000000
30
682.830490
0
VERTEX
8
TRAV_149
10
1672.925927
20
15.000000
30
681.765855
0
SEQEND
0
POLYLINE
8
TRAV_149
62
0
66
1
70
9
0
VERTEX
8
TRAV_149
10
1672.689903
20
0.000000
30
682.830490
0
VERTEX
8
TRAV_149
10
1672.547566
20
0.000000
30
683.911646
0
VERTEX
8
TRAV_149
10
1672.547566
20
15.000000
30
683.911646
0
VERTEX
8
TRAV_149
10
1672.689903
20
15.000000
30
682.830490
0
SEQEND
0
POLYLINE
8
TRAV_149
62
0
66
1
70
9
0
VERTEX
8
TRAV_149
10
1672.547566
20
0.000000
30
683.911646
0
VERTEX
8
TRAV_149
10
1672.500000
20
0.000000
30
685.001093
0
VERTEX
8
TRAV_149
10
1672.500000
20
15.000000
30
685.001093
0
VERTEX
8
TRAV_149
10
1672.547566
20
15.000000
30
683.911646
0
SEQEND
0
POLYLINE
8
TRAV_149
62
0
66
1
70
9
0
VERTEX
8
TRAV_149
10
1672.500000
20
0.000000
30
685.001093
0
VERTEX
8
TRAV_149
10
1672.547566
20
0.000000
30
686.090539
0
VERTEX
8
TRAV_149
10
1672.547566
20
15.000000
30
686.090539
0
VERTEX
8
TRAV_149
10
1672.500000
20
15.000000
30
685.001093
0
SEQEND
0
POLYLINE
8
TRAV_149
62
0
66
1
70
9
0
VERTEX
8
TRAV_149
10
1672.547566
20
0.000000
30
686.090539
0
VERTEX
8
TRAV_149
10
1672.689903
20
0.000000
30
687.171695
0
VERTEX
8
TRAV_149
10
1672.689903
20
15.000000
30
687.171695
0
VERTEX
8
TRAV_149
10
1672.547566
20
15.000000
30
686.090539
0
SEQEND
0
POLYLINE
8
TRAV_149
62
0
66
1
70
9
0
VERTEX
8
TRAV_149
10
1672.689903
20
0.000000
30
687.171695
0
VERTEX
8
TRAV_149
10
1672.925927
20
0.000000
30
688.236331
0
VERTEX
8
TRAV_149
10
1672.925927
20
15.000000
30
688.236331
0
VERTEX
8
TRAV_149
10
1672.689903
20
15.000000
30
687.171695
0
SEQEND
0
POLYLINE
8
TRAV_149
62
0
66
1
70
9
0
VERTEX
8
TRAV_149
10
1672.925927
20
0.000000
30
688.236331
0
VERTEX
8
TRAV_149
10
1673.253842
20
0.000000
30
689.276344
0
VERTEX
8
TRAV_149
10
1673.253842
20
15.000000
30
689.276344
0
VERTEX
8
TRAV_149
10
1672.925927
20
15.000000
30
688.236331
0
SEQEND
0
POLYLINE
8
TRAV_149
62
0
66
1
70
9
0
VERTEX
8
TRAV_149
10
1673.253842
20
0.000000
30
689.276344
0
VERTEX
8
TRAV_149
10
1673.671153
20
0.000000
30
690.283821
0
VERTEX
8
TRAV_149
10
1673.671153
20
15.000000
30
690.283821
0
VERTEX
8
TRAV_149
10
1673.253842
20
15.000000
30
689.276344
0
SEQEND
0
POLYLINE
8
TRAV_149
62
0
66
1
70
9
0
VERTEX
8
TRAV_149
10
1673.671153
20
0.000000
30
690.283821
0
VERTEX
8
TRAV_149
10
1674.174682
20
0.000000
30
691.251093
0
VERTEX
8
TRAV_149
10
1674.174682
20
15.000000
30
691.251093
0
VERTEX
8
TRAV_149
10
1673.671153
20
15.000000
30
690.283821
0
SEQEND
0
POLYLINE
8
TRAV_149
62
0
66
1
70
9
0
VERTEX
8
TRAV_149
10
1674.174682
20
0.000000
30
691.251093
0
VERTEX
8
TRAV_149
10
1674.760599
20
0.000000
30
692.170798
0
VERTEX
8
TRAV_149
10
1674.760599
20
15.000000
30
692.170798
0
VERTEX
8
TRAV_149
10
1674.174682
20
15.000000
30
691.251093
0
SEQEND
0
POLYLINE
8
TRAV_149
62
0
66
1
70
9
0
VERTEX
8
TRAV_149
10
1674.760599
20
0.000000
30
692.170798
0
VERTEX
8
TRAV_149
10
1675.424444
20
0.000000
30
693.035938
0
VERTEX
8
TRAV_149
10
1675.424444
20
15.000000
30
693.035938
0
VERTEX
8
TRAV_149
10
1674.760599
20
15.000000
30
692.170798
0
SEQEND
0
POLYLINE
8
TRAV_149
62
0
66
1
70
9
0
VERTEX
8
TRAV_149
10
1675.424444
20
0.000000
30
693.035938
0
VERTEX
8
TRAV_149
10
1676.161165
20
0.000000
30
693.839927
0
VERTEX
8
TRAV_149
10
1676.161165
20
15.000000
30
693.839927
0
VERTEX
8
TRAV_149
10
1675.424444
20
15.000000
30
693.035938
0
SEQEND
0
POLYLINE
8
TRAV_149
62
0
66
1
70
9
0
VERTEX
8
TRAV_149
10
1676.161165
20
0.000000
30
693.839927
0
VERTEX
8
TRAV_149
10
1676.965155
20
0.000000
30
694.576648
0
VERTEX
8
TRAV_149
10
1676.965155
20
15.000000
30
694.576648
0
VERTEX
8
TRAV_149
10
1676.161165
20
15.000000
30
693.839927
0
SEQEND
0
POLYLINE
8
TRAV_149
62
0
66
1
70
9
0
VERTEX
8
TRAV_149
10
1676.965155
20
0.000000
30
694.576648
0
VERTEX
8
TRAV_149
10
1677.830295
20
0.000000
30
695.240493
0
VERTEX
8
TRAV_149
10
1677.830295
20
15.000000
30
695.240493
0
VERTEX
8
TRAV_149
10
1676.965155
20
15.000000
30
694.576648
0
SEQEND
0
POLYLINE
8
TRAV_149
62
0
66
1
70
9
0
VERTEX
8
TRAV_149
10
1677.830295
20
0.000000
30
695.240493
0
VERTEX
8
TRAV_149
10
1678.750000
20
0.000000
30
695.826410
0
VERTEX
8
TRAV_149
10
1678.750000
20
15.000000
30
695.826410
0
VERTEX
8
TRAV_149
10
1677.830295
20
15.000000
30
695.240493
0
SEQEND
0
POLYLINE
8
TRAV_149
62
0
66
1
70
9
0
VERTEX
8
TRAV_149
10
1678.750000
20
0.000000
30
695.826410
0
VERTEX
8
TRAV_149
10
1679.717272
20
0.000000
30
696.329940
0
VERTEX
8
TRAV_149
10
1679.717272
20
15.000000
30
696.329940
0
VERTEX
8
TRAV_149
10
1678.750000
20
15.000000
30
695.826410
0
SEQEND
0
POLYLINE
8
TRAV_149
62
0
66
1
70
9
0
VERTEX
8
TRAV_149
10
1679.717272
20
0.000000
30
696.329940
0
VERTEX
8
TRAV_149
10
1680.724748
20
0.000000
30
696.747250
0
VERTEX
8
TRAV_149
10
1680.724748
20
15.000000
30
696.747250
0
VERTEX
8
TRAV_149
10
1679.717272
20
15.000000
30
696.329940
0
SEQEND
0
POLYLINE
8
TRAV_149
62
0
66
1
70
9
0
VERTEX
8
TRAV_149
10
1680.724748
20
0.000000
30
696.747250
0
VERTEX
8
TRAV_149
10
1681.764762
20
0.000000
30
697.075165
0
VERTEX
8
TRAV_149
10
1681.764762
20
15.000000
30
697.075165
0
VERTEX
8
TRAV_149
10
1680.724748
20
15.000000
30
696.747250
0
SEQEND
0
POLYLINE
8
TRAV_149
62
0
66
1
70
9
0
VERTEX
8
TRAV_149
10
1681.764762
20
0.000000
30
697.075165
0
VERTEX
8
TRAV_149
10
1682.829398
20
0.000000
30
697.311190
0
VERTEX
8
TRAV_149
10
1682.829398
20
15.000000
30
697.311190
0
VERTEX
8
TRAV_149
10
1681.764762
20
15.000000
30
697.075165
0
SEQEND
0
POLYLINE
8
TRAV_149
62
0
66
1
70
9
0
VERTEX
8
TRAV_149
10
1682.829398
20
0.000000
30
697.311190
0
VERTEX
8
TRAV_149
10
1683.910553
20
0.000000
30
697.453526
0
VERTEX
8
TRAV_149
10
1683.910553
20
15.000000
30
697.453526
0
VERTEX
8
TRAV_149
10
1682.829398
20
15.000000
30
697.311190
0
SEQEND
0
POLYLINE
8
TRAV_149
62
0
66
1
70
9
0
VERTEX
8
TRAV_149
10
1683.910553
20
0.000000
30
697.453526
0
VERTEX
8
TRAV_149
10
1685.000000
20
0.000000
30
697.501093
0
VERTEX
8
TRAV_149
10
1685.000000
20
15.000000
30
697.501093
0
VERTEX
8
TRAV_149
10
1683.910553
20
15.000000
30
697.453526
0
SEQEND
0
POLYLINE
8
TRAV_149
62
0
66
1
70
9
0
VERTEX
8
TRAV_149
10
1685.000000
20
0.000000
30
697.501093
0
VERTEX
8
TRAV_149
10
1686.089447
20
0.000000
30
697.453526
0
VERTEX
8
TRAV_149
10
1686.089447
20
15.000000
30
697.453526
0
VERTEX
8
TRAV_149
10
1685.000000
20
15.000000
30
697.501093
0
SEQEND
0
POLYLINE
8
TRAV_149
62
0
66
1
70
9
0
VERTEX
8
TRAV_149
10
1686.089447
20
0.000000
30
697.453526
0
VERTEX
8
TRAV_149
10
1687.170602
20
0.000000
30
697.311190
0
VERTEX
8
TRAV_149
10
1687.170602
20
15.000000
30
697.311190
0
VERTEX
8
TRAV_149
10
1686.089447
20
15.000000
30
697.453526
0
SEQEND
0
POLYLINE
8
TRAV_149
62
0
66
1
70
9
0
VERTEX
8
TRAV_149
10
1687.170602
20
0.000000
30
697.311190
0
VERTEX
8
TRAV_149
10
1688.235238
20
0.000000
30
697.075165
0
VERTEX
8
TRAV_149
10
1688.235238
20
15.000000
30
697.075165
0
VERTEX
8
TRAV_149
10
1687.170602
20
15.000000
30
697.311190
0
SEQEND
0
POLYLINE
8
TRAV_149
62
0
66
1
70
9
0
VERTEX
8
TRAV_149
10
1688.235238
20
0.000000
30
697.075165
0
VERTEX
8
TRAV_149
10
1689.275252
20
0.000000
30
696.747250
0
VERTEX
8
TRAV_149
10
1689.275252
20
15.000000
30
696.747250
0
VERTEX
8
TRAV_149
10
1688.235238
20
15.000000
30
697.075165
0
SEQEND
0
POLYLINE
8
TRAV_149
62
0
66
1
70
9
0
VERTEX
8
TRAV_149
10
1689.275252
20
0.000000
30
696.747250
0
VERTEX
8
TRAV_149
10
1690.282728
20
0.000000
30
696.329940
0
VERTEX
8
TRAV_149
10
1690.282728
20
15.000000
30
696.329940
0
VERTEX
8
TRAV_149
10
1689.275252
20
15.000000
30
696.747250
0
SEQEND
0
POLYLINE
8
TRAV_149
62
0
66
1
70
9
0
VERTEX
8
TRAV_149
10
1690.282728
20
0.000000
30
696.329940
0
VERTEX
8
TRAV_149
10
1691.250000
20
0.000000
30
695.826410
0
VERTEX
8
TRAV_149
10
1691.250000
20
15.000000
30
695.826410
0
VERTEX
8
TRAV_149
10
1690.282728
20
15.000000
30
696.329940
0
SEQEND
0
POLYLINE
8
TRAV_149
62
0
66
1
70
9
0
VERTEX
8
TRAV_149
10
1691.250000
20
0.000000
30
695.826410
0
VERTEX
8
TRAV_149
10
1692.169705
20
0.000000
30
695.240493
0
VERTEX
8
TRAV_149
10
1692.169705
20
15.000000
30
695.240493
0
VERTEX
8
TRAV_149
10
1691.250000
20
15.000000
30
695.826410
0
SEQEND
0
POLYLINE
8
TRAV_149
62
0
66
1
70
9
0
VERTEX
8
TRAV_149
10
1692.169705
20
0.000000
30
695.240493
0
VERTEX
8
TRAV_149
10
1693.034845
20
0.000000
30
694.576648
0
VERTEX
8
TRAV_149
10
1693.034845
20
15.000000
30
694.576648
0
VERTEX
8
TRAV_149
10
1692.169705
20
15.000000
30
695.240493
0
SEQEND
0
POLYLINE
8
TRAV_149
62
0
66
1
70
9
0
VERTEX
8
TRAV_149
10
1693.034845
20
0.000000
30
694.576648
0
VERTEX
8
TRAV_149
10
1693.838835
20
0.000000
30
693.839927
0
VERTEX
8
TRAV_149
10
1693.838835
20
15.000000
30
693.839927
0
VERTEX
8
TRAV_149
10
1693.034845
20
15.000000
30
694.576648
0
SEQEND
0
POLYLINE
8
TRAV_149
62
0
66
1
70
9
0
VERTEX
8
TRAV_149
10
1693.838835
20
0.000000
30
693.839927
0
VERTEX
8
TRAV_149
10
1694.575556
20
0.000000
30
693.035938
0
VERTEX
8
TRAV_149
10
1694.575556
20
15.000000
30
693.035938
0
VERTEX
8
TRAV_149
10
1693.838835
20
15.000000
30
693.839927
0
SEQEND
0
POLYLINE
8
TRAV_149
62
0
66
1
70
9
0
VERTEX
8
TRAV_149
10
1694.575556
20
0.000000
30
693.035938
0
VERTEX
8
TRAV_149
10
1695.239401
20
0.000000
30
692.170798
0
VERTEX
8
TRAV_149
10
1695.239401
20
15.000000
30
692.170798
0
VERTEX
8
TRAV_149
10
1694.575556
20
15.000000
30
693.035938
0
SEQEND
0
POLYLINE
8
TRAV_149
62
0
66
1
70
9
0
VERTEX
8
TRAV_149
10
1695.239401
20
0.000000
30
692.170798
0
VERTEX
8
TRAV_149
10
1695.825318
20
0.000000
30
691.251093
0
VERTEX
8
TRAV_149
10
1695.825318
20
15.000000
30
691.251093
0
VERTEX
8
TRAV_149
10
1695.239401
20
15.000000
30
692.170798
0
SEQEND
0
POLYLINE
8
TRAV_149
62
0
66
1
70
9
0
VERTEX
8
TRAV_149
10
1695.825318
20
0.000000
30
691.251093
0
VERTEX
8
TRAV_149
10
1696.328847
20
0.000000
30
690.283821
0
VERTEX
8
TRAV_149
10
1696.328847
20
15.000000
30
690.283821
0
VERTEX
8
TRAV_149
10
1695.825318
20
15.000000
30
691.251093
0
SEQEND
0
POLYLINE
8
TRAV_149
62
0
66
1
70
9
0
VERTEX
8
TRAV_149
10
1696.328847
20
0.000000
30
690.283821
0
VERTEX
8
TRAV_149
10
1696.746158
20
0.000000
30
689.276344
0
VERTEX
8
TRAV_149
10
1696.746158
20
15.000000
30
689.276344
0
VERTEX
8
TRAV_149
10
1696.328847
20
15.000000
30
690.283821
0
SEQEND
0
POLYLINE
8
TRAV_149
62
0
66
1
70
9
0
VERTEX
8
TRAV_149
10
1696.746158
20
0.000000
30
689.276344
0
VERTEX
8
TRAV_149
10
1697.074073
20
0.000000
30
688.236331
0
VERTEX
8
TRAV_149
10
1697.074073
20
15.000000
30
688.236331
0
VERTEX
8
TRAV_149
10
1696.746158
20
15.000000
30
689.276344
0
SEQEND
0
POLYLINE
8
TRAV_149
62
0
66
1
70
9
0
VERTEX
8
TRAV_149
10
1697.074073
20
0.000000
30
688.236331
0
VERTEX
8
TRAV_149
10
1697.310097
20
0.000000
30
687.171695
0
VERTEX
8
TRAV_149
10
1697.310097
20
15.000000
30
687.171695
0
VERTEX
8
TRAV_149
10
1697.074073
20
15.000000
30
688.236331
0
SEQEND
0
POLYLINE
8
TRAV_149
62
0
66
1
70
9
0
VERTEX
8
TRAV_149
10
1697.310097
20
0.000000
30
687.171695
0
VERTEX
8
TRAV_149
10
1697.452434
20
0.000000
30
686.090539
0
VERTEX
8
TRAV_149
10
1697.452434
20
15.000000
30
686.090539
0
VERTEX
8
TRAV_149
10
1697.310097
20
15.000000
30
687.171695
0
SEQEND
0
POLYLINE
8
TRAV_149
62
0
66
1
70
9
0
VERTEX
8
TRAV_149
10
1697.452434
20
0.000000
30
686.090539
0
VERTEX
8
TRAV_149
10
1697.500000
20
0.000000
30
685.001093
0
VERTEX
8
TRAV_149
10
1697.500000
20
15.000000
30
685.001093
0
VERTEX
8
TRAV_149
10
1697.452434
20
15.000000
30
686.090539
0
SEQEND
0
POLYLINE
8
TRAV_149
62
0
66
1
70
9
0
VERTEX
8
TRAV_149
10
1697.452434
20
0.000000
30
686.090539
0
VERTEX
8
TRAV_149
10
1697.310097
20
0.000000
30
687.171695
0
VERTEX
8
TRAV_149
10
1697.074073
20
0.000000
30
688.236331
0
VERTEX
8
TRAV_149
10
1696.746158
20
0.000000
30
689.276344
0
VERTEX
8
TRAV_149
10
1696.328847
20
0.000000
30
690.283821
0
VERTEX
8
TRAV_149
10
1695.825318
20
0.000000
30
691.251093
0
VERTEX
8
TRAV_149
10
1695.239401
20
0.000000
30
692.170798
0
VERTEX
8
TRAV_149
10
1694.575556
20
0.000000
30
693.035938
0
VERTEX
8
TRAV_149
10
1693.838835
20
0.000000
30
693.839927
0
VERTEX
8
TRAV_149
10
1693.034845
20
0.000000
30
694.576648
0
VERTEX
8
TRAV_149
10
1692.169705
20
0.000000
30
695.240493
0
VERTEX
8
TRAV_149
10
1691.250000
20
0.000000
30
695.826410
0
VERTEX
8
TRAV_149
10
1690.282728
20
0.000000
30
696.329940
0
VERTEX
8
TRAV_149
10
1689.275252
20
0.000000
30
696.747250
0
VERTEX
8
TRAV_149
10
1688.235238
20
0.000000
30
697.075165
0
VERTEX
8
TRAV_149
10
1687.170602
20
0.000000
30
697.311190
0
VERTEX
8
TRAV_149
10
1686.089447
20
0.000000
30
697.453526
0
VERTEX
8
TRAV_149
10
1685.000000
20
0.000000
30
697.501093
0
VERTEX
8
TRAV_149
10
1683.910553
20
0.000000
30
697.453526
0
VERTEX
8
TRAV_149
10
1682.829398
20
0.000000
30
697.311190
0
VERTEX
8
TRAV_149
10
1681.764762
20
0.000000
30
697.075165
0
VERTEX
8
TRAV_149
10
1680.724748
20
0.000000
30
696.747250
0
VERTEX
8
TRAV_149
10
1679.717272
20
0.000000
30
696.329940
0
VERTEX
8
TRAV_149
10
1678.750000
20
0.000000
30
695.826410
0
VERTEX
8
TRAV_149
10
1677.830295
20
0.000000
30
695.240493
0
VERTEX
8
TRAV_149
10
1676.965155
20
0.000000
30
694.576648
0
VERTEX
8
TRAV_149
10
1676.161165
20
0.000000
30
693.839927
0
VERTEX
8
TRAV_149
10
1675.424444
20
0.000000
30
693.035938
0
VERTEX
8
TRAV_149
10
1674.760599
20
0.000000
30
692.170798
0
VERTEX
8
TRAV_149
10
1674.174682
20
0.000000
30
691.251093
0
VERTEX
8
TRAV_149
10
1673.671153
20
0.000000
30
690.283821
0
VERTEX
8
TRAV_149
10
1673.253842
20
0.000000
30
689.276344
0
VERTEX
8
TRAV_149
10
1672.925927
20
0.000000
30
688.236331
0
VERTEX
8
TRAV_149
10
1672.689903
20
0.000000
30
687.171695
0
VERTEX
8
TRAV_149
10
1672.547566
20
0.000000
30
686.090539
0
VERTEX
8
TRAV_149
10
1672.500000
20
0.000000
30
685.001093
0
VERTEX
8
TRAV_149
10
1672.547566
20
0.000000
30
683.911646
0
VERTEX
8
TRAV_149
10
1672.689903
20
0.000000
30
682.830490
0
VERTEX
8
TRAV_149
10
1672.925927
20
0.000000
30
681.765855
0
VERTEX
8
TRAV_149
10
1673.253842
20
0.000000
30
680.725841
0
VERTEX
8
TRAV_149
10
1673.671153
20
0.000000
30
679.718364
0
VERTEX
8
TRAV_149
10
1674.174682
20
0.000000
30
678.751093
0
VERTEX
8
TRAV_149
10
1674.760599
20
0.000000
30
677.831387
0
VERTEX
8
TRAV_149
10
1675.424444
20
0.000000
30
676.966248
0
VERTEX
8
TRAV_149
10
1676.161165
20
0.000000
30
676.162258
0
VERTEX
8
TRAV_149
10
1676.965155
20
0.000000
30
675.425537
0
VERTEX
8
TRAV_149
10
1677.830295
20
0.000000
30
674.761692
0
VERTEX
8
TRAV_149
10
1678.750000
20
0.000000
30
674.175775
0
VERTEX
8
TRAV_149
10
1679.717272
20
0.000000
30
673.672245
0
VERTEX
8
TRAV_149
10
1680.724748
20
0.000000
30
673.254935
0
VERTEX
8
TRAV_149
10
1681.764762
20
0.000000
30
672.927020
0
VERTEX
8
TRAV_149
10
1682.829398
20
0.000000
30
672.690996
0
VERTEX
8
TRAV_149
10
1683.910553
20
0.000000
30
672.548659
0
VERTEX
8
TRAV_149
10
1685.000000
20
0.000000
30
672.501093
0
VERTEX
8
TRAV_149
10
1686.089447
20
0.000000
30
672.548659
0
VERTEX
8
TRAV_149
10
1687.170602
20
0.000000
30
672.690996
0
VERTEX
8
TRAV_149
10
1688.235238
20
0.000000
30
672.927020
0
VERTEX
8
TRAV_149
10
1689.275252
20
0.000000
30
673.254935
0
VERTEX
8
TRAV_149
10
1690.282728
20
0.000000
30
673.672245
0
VERTEX
8
TRAV_149
10
1691.250000
20
0.000000
30
674.175775
0
VERTEX
8
TRAV_149
10
1692.169705
20
0.000000
30
674.761692
0
VERTEX
8
TRAV_149
10
1693.034845
20
0.000000
30
675.425537
0
VERTEX
8
TRAV_149
10
1693.838835
20
0.000000
30
676.162258
0
VERTEX
8
TRAV_149
10
1694.575556
20
0.000000
30
676.966248
0
VERTEX
8
TRAV_149
10
1695.239401
20
0.000000
30
677.831387
0
VERTEX
8
TRAV_149
10
1695.825318
20
0.000000
30
678.751093
0
VERTEX
8
TRAV_149
10
1696.328847
20
0.000000
30
679.718364
0
VERTEX
8
TRAV_149
10
1696.746158
20
0.000000
30
680.725841
0
VERTEX
8
TRAV_149
10
1697.074073
20
0.000000
30
681.765855
0
VERTEX
8
TRAV_149
10
1697.310097
20
0.000000
30
682.830490
0
VERTEX
8
TRAV_149
10
1697.452434
20
0.000000
30
683.911646
0
VERTEX
8
TRAV_149
10
1697.500000
20
0.000000
30
685.001093
0
SEQEND
0
POLYLINE
8
TRAV_149
62
0
66
1
70
9
0
VERTEX
8
TRAV_149
10
1697.500000
20
15.000000
30
685.001093
0
VERTEX
8
TRAV_149
10
1697.452434
20
15.000000
30
683.911646
0
VERTEX
8
TRAV_149
10
1697.310097
20
15.000000
30
682.830490
0
VERTEX
8
TRAV_149
10
1697.074073
20
15.000000
30
681.765855
0
VERTEX
8
TRAV_149
10
1696.746158
20
15.000000
30
680.725841
0
VERTEX
8
TRAV_149
10
1696.328847
20
15.000000
30
679.718364
0
VERTEX
8
TRAV_149
10
1695.825318
20
15.000000
30
678.751093
0
VERTEX
8
TRAV_149
10
1695.239401
20
15.000000
30
677.831387
0
VERTEX
8
TRAV_149
10
1694.575556
20
15.000000
30
676.966248
0
VERTEX
8
TRAV_149
10
1693.838835
20
15.000000
30
676.162258
0
VERTEX
8
TRAV_149
10
1693.034845
20
15.000000
30
675.425537
0
VERTEX
8
TRAV_149
10
1692.169705
20
15.000000
30
674.761692
0
VERTEX
8
TRAV_149
10
1691.250000
20
15.000000
30
674.175775
0
VERTEX
8
TRAV_149
10
1690.282728
20
15.000000
30
673.672245
0
VERTEX
8
TRAV_149
10
1689.275252
20
15.000000
30
673.254935
0
VERTEX
8
TRAV_149
10
1688.235238
20
15.000000
30
672.927020
0
VERTEX
8
TRAV_149
10
1687.170602
20
15.000000
30
672.690996
0
VERTEX
8
TRAV_149
10
1686.089447
20
15.000000
30
672.548659
0
VERTEX
8
TRAV_149
10
1685.000000
20
15.000000
30
672.501093
0
VERTEX
8
TRAV_149
10
1683.910553
20
15.000000
30
672.548659
0
VERTEX
8
TRAV_149
10
1682.829398
20
15.000000
30
672.690996
0
VERTEX
8
TRAV_149
10
1681.764762
20
15.000000
30
672.927020
0
VERTEX
8
TRAV_149
10
1680.724748
20
15.000000
30
673.254935
0
VERTEX
8
TRAV_149
10
1679.717272
20
15.000000
30
673.672245
0
VERTEX
8
TRAV_149
10
1678.750000
20
15.000000
30
674.175775
0
VERTEX
8
TRAV_149
10
1677.830295
20
15.000000
30
674.761692
0
VERTEX
8
TRAV_149
10
1676.965155
20
15.000000
30
675.425537
0
VERTEX
8
TRAV_149
10
1676.161165
20
15.000000
30
676.162258
0
VERTEX
8
TRAV_149
10
1675.424444
20
15.000000
30
676.966248
0
VERTEX
8
TRAV_149
10
1674.760599
20
15.000000
30
677.831387
0
VERTEX
8
TRAV_149
10
1674.174682
20
15.000000
30
678.751093
0
VERTEX
8
TRAV_149
10
1673.671153
20
15.000000
30
679.718364
0
VERTEX
8
TRAV_149
10
1673.253842
20
15.000000
30
680.725841
0
VERTEX
8
TRAV_149
10
1672.925927
20
15.000000
30
681.765855
0
VERTEX
8
TRAV_149
10
1672.689903
20
15.000000
30
682.830490
0
VERTEX
8
TRAV_149
10
1672.547566
20
15.000000
30
683.911646
0
VERTEX
8
TRAV_149
10
1672.500000
20
15.000000
30
685.001093
0
VERTEX
8
TRAV_149
10
1672.547566
20
15.000000
30
686.090539
0
VERTEX
8
TRAV_149
10
1672.689903
20
15.000000
30
687.171695
0
VERTEX
8
TRAV_149
10
1672.925927
20
15.000000
30
688.236331
0
VERTEX
8
TRAV_149
10
1673.253842
20
15.000000
30
689.276344
0
VERTEX
8
TRAV_149
10
1673.671153
20
15.000000
30
690.283821
0
VERTEX
8
TRAV_149
10
1674.174682
20
15.000000
30
691.251093
0
VERTEX
8
TRAV_149
10
1674.760599
20
15.000000
30
692.170798
0
VERTEX
8
TRAV_149
10
1675.424444
20
15.000000
30
693.035938
0
VERTEX
8
TRAV_149
10
1676.161165
20
15.000000
30
693.839927
0
VERTEX
8
TRAV_149
10
1676.965155
20
15.000000
30
694.576648
0
VERTEX
8
TRAV_149
10
1677.830295
20
15.000000
30
695.240493
0
VERTEX
8
TRAV_149
10
1678.750000
20
15.000000
30
695.826410
0
VERTEX
8
TRAV_149
10
1679.717272
20
15.000000
30
696.329940
0
VERTEX
8
TRAV_149
10
1680.724748
20
15.000000
30
696.747250
0
VERTEX
8
TRAV_149
10
1681.764762
20
15.000000
30
697.075165
0
VERTEX
8
TRAV_149
10
1682.829398
20
15.000000
30
697.311190
0
VERTEX
8
TRAV_149
10
1683.910553
20
15.000000
30
697.453526
0
VERTEX
8
TRAV_149
10
1685.000000
20
15.000000
30
697.501093
0
VERTEX
8
TRAV_149
10
1686.089447
20
15.000000
30
697.453526
0
VERTEX
8
TRAV_149
10
1687.170602
20
15.000000
30
697.311190
0
VERTEX
8
TRAV_149
10
1688.235238
20
15.000000
30
697.075165
0
VERTEX
8
TRAV_149
10
1689.275252
20
15.000000
30
696.747250
0
VERTEX
8
TRAV_149
10
1690.282728
20
15.000000
30
696.329940
0
VERTEX
8
TRAV_149
10
1691.250000
20
15.000000
30
695.826410
0
VERTEX
8
TRAV_149
10
1692.169705
20
15.000000
30
695.240493
0
VERTEX
8
TRAV_149
10
1693.034845
20
15.000000
30
694.576648
0
VERTEX
8
TRAV_149
10
1693.838835
20
15.000000
30
693.839927
0
VERTEX
8
TRAV_149
10
1694.575556
20
15.000000
30
693.035938
0
VERTEX
8
TRAV_149
10
1695.239401
20
15.000000
30
692.170798
0
VERTEX
8
TRAV_149
10
1695.825318
20
15.000000
30
691.251093
0
VERTEX
8
TRAV_149
10
1696.328847
20
15.000000
30
690.283821
0
VERTEX
8
TRAV_149
10
1696.746158
20
15.000000
30
689.276344
0
VERTEX
8
TRAV_149
10
1697.074073
20
15.000000
30
688.236331
0
VERTEX
8
TRAV_149
10
1697.310097
20
15.000000
30
687.171695
0
VERTEX
8
TRAV_149
10
1697.452434
20
15.000000
30
686.090539
0
SEQEND
0
POLYLINE
8
TRAV_149
62
0
66
1
70
9
0
VERTEX
8
TRAV_149
10
155.000000
20
425.000000
30
-0.000000
0
VERTEX
8
TRAV_149
10
1645.000000
20
425.000000
30
-0.000000
0
VERTEX
8
TRAV_149
10
1645.000000
20
425.000000
30
15.000000
0
VERTEX
8
TRAV_149
10
155.000000
20
425.000000
30
15.000000
0
SEQEND
0
POLYLINE
8
TRAV_149
62
0
66
1
70
9
0
VERTEX
8
TRAV_149
10
1645.000000
20
425.000000
30
-0.000000
0
VERTEX
8
TRAV_149
10
1645.000000
20
475.000000
30
-0.000000
0
VERTEX
8
TRAV_149
10
1645.000000
20
475.000000
30
15.000000
0
VERTEX
8
TRAV_149
10
1645.000000
20
425.000000
30
15.000000
0
SEQEND
0
POLYLINE
8
TRAV_149
62
0
66
1
70
9
0
VERTEX
8
TRAV_149
10
1645.000000
20
475.000000
30
-0.000000
0
VERTEX
8
TRAV_149
10
155.000000
20
475.000000
30
-0.000000
0
VERTEX
8
TRAV_149
10
155.000000
20
475.000000
30
15.000000
0
VERTEX
8
TRAV_149
10
1645.000000
20
475.000000
30
15.000000
0
SEQEND
0
POLYLINE
8
TRAV_149
62
0
66
1
70
9
0
VERTEX
8
TRAV_149
10
155.000000
20
475.000000
30
-0.000000
0
VERTEX
8
TRAV_149
10
155.000000
20
425.000000
30
-0.000000
0
VERTEX
8
TRAV_149
10
155.000000
20
425.000000
30
15.000000
0
VERTEX
8
TRAV_149
10
155.000000
20
475.000000
30
15.000000
0
SEQEND
0
POLYLINE
8
TRAV_149
62
0
66
1
70
9
0
VERTEX
8
TRAV_149
10
155.000000
20
425.000000
30
-0.000000
0
VERTEX
8
TRAV_149
10
155.000000
20
475.000000
30
-0.000000
0
VERTEX
8
TRAV_149
10
1645.000000
20
475.000000
30
-0.000000
0
VERTEX
8
TRAV_149
10
1645.000000
20
425.000000
30
-0.000000
0
SEQEND
0
POLYLINE
8
TRAV_149
62
0
66
1
70
9
0
VERTEX
8
TRAV_149
10
155.000000
20
425.000000
30
15.000000
0
VERTEX
8
TRAV_149
10
1645.000000
20
425.000000
30
15.000000
0
VERTEX
8
TRAV_149
10
1645.000000
20
475.000000
30
15.000000
0
VERTEX
8
TRAV_149
10
155.000000
20
475.000000
30
15.000000
0
SEQEND
0
POLYLINE
8
TRAV_149
62
0
66
1
70
9
0
VERTEX
8
TRAV_149
10
0.000000
20
710.000000
30
695.000000
0
VERTEX
8
TRAV_149
10
1800.000000
20
710.000000
30
695.000000
0
VERTEX
8
TRAV_149
10
1800.000000
20
710.000000
30
750.000000
0
VERTEX
8
TRAV_149
10
0.000000
20
710.000000
30
750.000000
0
SEQEND
0
POLYLINE
8
TRAV_149
62
0
66
1
70
9
0
VERTEX
8
TRAV_149
10
1800.000000
20
710.000000
30
695.000000
0
VERTEX
8
TRAV_149
10
1800.000000
20
830.000000
30
695.000000
0
VERTEX
8
TRAV_149
10
1800.000000
20
830.000000
30
750.000000
0
VERTEX
8
TRAV_149
10
1800.000000
20
710.000000
30
750.000000
0
SEQEND
0
POLYLINE
8
TRAV_149
62
0
66
1
70
9
0
VERTEX
8
TRAV_149
10
1800.000000
20
830.000000
30
695.000000
0
VERTEX
8
TRAV_149
10
0.000000
20
830.000000
30
695.000000
0
VERTEX
8
TRAV_149
10
0.000000
20
830.000000
30
750.000000
0
VERTEX
8
TRAV_149
10
1800.000000
20
830.000000
30
750.000000
0
SEQEND
0
POLYLINE
8
TRAV_149
62
0
66
1
70
9
0
VERTEX
8
TRAV_149
10
0.000000
20
830.000000
30
695.000000
0
VERTEX
8
TRAV_149
10
0.000000
20
710.000000
30
695.000000
0
VERTEX
8
TRAV_149
10
0.000000
20
710.000000
30
750.000000
0
VERTEX
8
TRAV_149
10
0.000000
20
830.000000
30
750.000000
0
SEQEND
0
POLYLINE
8
TRAV_149
62
0
66
1
70
9
0
VERTEX
8
TRAV_149
10
0.000000
20
710.000000
30
695.000000
0
VERTEX
8
TRAV_149
10
0.000000
20
830.000000
30
695.000000
0
VERTEX
8
TRAV_149
10
1800.000000
20
830.000000
30
695.000000
0
VERTEX
8
TRAV_149
10
1800.000000
20
710.000000
30
695.000000
0
SEQEND
0
POLYLINE
8
TRAV_149
62
0
66
1
70
9
0
VERTEX
8
TRAV_149
10
0.000000
20
710.000000
30
750.000000
0
VERTEX
8
TRAV_149
10
1800.000000
20
710.000000
30
750.000000
0
VERTEX
8
TRAV_149
10
1800.000000
20
830.000000
30
750.000000
0
VERTEX
8
TRAV_149
10
0.000000
20
830.000000
30
750.000000
0
SEQEND
0
POLYLINE
8
TRAV_149
62
0
66
1
70
9
0
VERTEX
8
TRAV_149
10
0.000000
20
590.000000
30
695.000000
0
VERTEX
8
TRAV_149
10
1800.000000
20
590.000000
30
695.000000
0
VERTEX
8
TRAV_149
10
1800.000000
20
590.000000
30
750.000000
0
VERTEX
8
TRAV_149
10
0.000000
20
590.000000
30
750.000000
0
SEQEND
0
POLYLINE
8
TRAV_149
62
0
66
1
70
9
0
VERTEX
8
TRAV_149
10
1800.000000
20
590.000000
30
695.000000
0
VERTEX
8
TRAV_149
10
1800.000000
20
710.000000
30
695.000000
0
VERTEX
8
TRAV_149
10
1800.000000
20
710.000000
30
750.000000
0
VERTEX
8
TRAV_149
10
1800.000000
20
590.000000
30
750.000000
0
SEQEND
0
POLYLINE
8
TRAV_149
62
0
66
1
70
9
0
VERTEX
8
TRAV_149
10
1800.000000
20
710.000000
30
695.000000
0
VERTEX
8
TRAV_149
10
0.000000
20
710.000000
30
695.000000
0
VERTEX
8
TRAV_149
10
0.000000
20
710.000000
30
750.000000
0
VERTEX
8
TRAV_149
10
1800.000000
20
710.000000
30
750.000000
0
SEQEND
0
POLYLINE
8
TRAV_149
62
0
66
1
70
9
0
VERTEX
8
TRAV_149
10
0.000000
20
710.000000
30
695.000000
0
VERTEX
8
TRAV_149
10
0.000000
20
590.000000
30
695.000000
0
VERTEX
8
TRAV_149
10
0.000000
20
590.000000
30
750.000000
0
VERTEX
8
TRAV_149
10
0.000000
20
710.000000
30
750.000000
0
SEQEND
0
POLYLINE
8
TRAV_149
62
0
66
1
70
9
0
VERTEX
8
TRAV_149
10
0.000000
20
590.000000
30
695.000000
0
VERTEX
8
TRAV_149
10
0.000000
20
710.000000
30
695.000000
0
VERTEX
8
TRAV_149
10
1800.000000
20
710.000000
30
695.000000
0
VERTEX
8
TRAV_149
10
1800.000000
20
590.000000
30
695.000000
0
SEQEND
0
POLYLINE
8
TRAV_149
62
0
66
1
70
9
0
VERTEX
8
TRAV_149
10
0.000000
20
590.000000
30
750.000000
0
VERTEX
8
TRAV_149
10
1800.000000
20
590.000000
30
750.000000
0
VERTEX
8
TRAV_149
10
1800.000000
20
710.000000
30
750.000000
0
VERTEX
8
TRAV_149
10
0.000000
20
710.000000
30
750.000000
0
SEQEND
0
POLYLINE
8
TRAV_149
62
0
66
1
70
9
0
VERTEX
8
TRAV_149
10
0.000000
20
470.000000
30
695.000000
0
VERTEX
8
TRAV_149
10
1800.000000
20
470.000000
30
695.000000
0
VERTEX
8
TRAV_149
10
1800.000000
20
470.000000
30
750.000000
0
VERTEX
8
TRAV_149
10
0.000000
20
470.000000
30
750.000000
0
SEQEND
0
POLYLINE
8
TRAV_149
62
0
66
1
70
9
0
VERTEX
8
TRAV_149
10
1800.000000
20
470.000000
30
695.000000
0
VERTEX
8
TRAV_149
10
1800.000000
20
590.000000
30
695.000000
0
VERTEX
8
TRAV_149
10
1800.000000
20
590.000000
30
750.000000
0
VERTEX
8
TRAV_149
10
1800.000000
20
470.000000
30
750.000000
0
SEQEND
0
POLYLINE
8
TRAV_149
62
0
66
1
70
9
0
VERTEX
8
TRAV_149
10
1800.000000
20
590.000000
30
695.000000
0
VERTEX
8
TRAV_149
10
0.000000
20
590.000000
30
695.000000
0
VERTEX
8
TRAV_149
10
0.000000
20
590.000000
30
750.000000
0
VERTEX
8
TRAV_149
10
1800.000000
20
590.000000
30
750.000000
0
SEQEND
0
POLYLINE
8
TRAV_149
62
0
66
1
70
9
0
VERTEX
8
TRAV_149
10
0.000000
20
590.000000
30
695.000000
0
VERTEX
8
TRAV_149
10
0.000000
20
470.000000
30
695.000000
0
VERTEX
8
TRAV_149
10
0.000000
20
470.000000
30
750.000000
0
VERTEX
8
TRAV_149
10
0.000000
20
590.000000
30
750.000000
0
SEQEND
0
POLYLINE
8
TRAV_149
62
0
66
1
70
9
0
VERTEX
8
TRAV_149
10
0.000000
20
470.000000
30
695.000000
0
VERTEX
8
TRAV_149
10
0.000000
20
590.000000
30
695.000000
0
VERTEX
8
TRAV_149
10
1800.000000
20
590.000000
30
695.000000
0
VERTEX
8
TRAV_149
10
1800.000000
20
470.000000
30
695.000000
0
SEQEND
0
POLYLINE
8
TRAV_149
62
0
66
1
70
9
0
VERTEX
8
TRAV_149
10
0.000000
20
470.000000
30
750.000000
0
VERTEX
8
TRAV_149
10
1800.000000
20
470.000000
30
750.000000
0
VERTEX
8
TRAV_149
10
1800.000000
20
590.000000
30
750.000000
0
VERTEX
8
TRAV_149
10
0.000000
20
590.000000
30
750.000000
0
SEQEND
0
POLYLINE
8
TRAV_149
62
0
66
1
70
9
0
VERTEX
8
TRAV_149
10
0.000000
20
350.000000
30
695.000000
0
VERTEX
8
TRAV_149
10
1800.000000
20
350.000000
30
695.000000
0
VERTEX
8
TRAV_149
10
1800.000000
20
350.000000
30
750.000000
0
VERTEX
8
TRAV_149
10
0.000000
20
350.000000
30
750.000000
0
SEQEND
0
POLYLINE
8
TRAV_149
62
0
66
1
70
9
0
VERTEX
8
TRAV_149
10
1800.000000
20
350.000000
30
695.000000
0
VERTEX
8
TRAV_149
10
1800.000000
20
470.000000
30
695.000000
0
VERTEX
8
TRAV_149
10
1800.000000
20
470.000000
30
750.000000
0
VERTEX
8
TRAV_149
10
1800.000000
20
350.000000
30
750.000000
0
SEQEND
0
POLYLINE
8
TRAV_149
62
0
66
1
70
9
0
VERTEX
8
TRAV_149
10
1800.000000
20
470.000000
30
695.000000
0
VERTEX
8
TRAV_149
10
0.000000
20
470.000000
30
695.000000
0
VERTEX
8
TRAV_149
10
0.000000
20
470.000000
30
750.000000
0
VERTEX
8
TRAV_149
10
1800.000000
20
470.000000
30
750.000000
0
SEQEND
0
POLYLINE
8
TRAV_149
62
0
66
1
70
9
0
VERTEX
8
TRAV_149
10
0.000000
20
470.000000
30
695.000000
0
VERTEX
8
TRAV_149
10
0.000000
20
350.000000
30
695.000000
0
VERTEX
8
TRAV_149
10
0.000000
20
350.000000
30
750.000000
0
VERTEX
8
TRAV_149
10
0.000000
20
470.000000
30
750.000000
0
SEQEND
0
POLYLINE
8
TRAV_149
62
0
66
1
70
9
0
VERTEX
8
TRAV_149
10
0.000000
20
350.000000
30
695.000000
0
VERTEX
8
TRAV_149
10
0.000000
20
470.000000
30
695.000000
0
VERTEX
8
TRAV_149
10
1800.000000
20
470.000000
30
695.000000
0
VERTEX
8
TRAV_149
10
1800.000000
20
350.000000
30
695.000000
0
SEQEND
0
POLYLINE
8
TRAV_149
62
0
66
1
70
9
0
VERTEX
8
TRAV_149
10
0.000000
20
350.000000
30
750.000000
0
VERTEX
8
TRAV_149
10
1800.000000
20
350.000000
30
750.000000
0
VERTEX
8
TRAV_149
10
1800.000000
20
470.000000
30
750.000000
0
VERTEX
8
TRAV_149
10
0.000000
20
470.000000
30
750.000000
0
SEQEND
0
POLYLINE
8
TRAV_149
62
0
66
1
70
9
0
VERTEX
8
TRAV_149
10
0.000000
20
230.000000
30
695.000000
0
VERTEX
8
TRAV_149
10
1800.000000
20
230.000000
30
695.000000
0
VERTEX
8
TRAV_149
10
1800.000000
20
230.000000
30
750.000000
0
VERTEX
8
TRAV_149
10
0.000000
20
230.000000
30
750.000000
0
SEQEND
0
POLYLINE
8
TRAV_149
62
0
66
1
70
9
0
VERTEX
8
TRAV_149
10
1800.000000
20
230.000000
30
695.000000
0
VERTEX
8
TRAV_149
10
1800.000000
20
350.000000
30
695.000000
0
VERTEX
8
TRAV_149
10
1800.000000
20
350.000000
30
750.000000
0
VERTEX
8
TRAV_149
10
1800.000000
20
230.000000
30
750.000000
0
SEQEND
0
POLYLINE
8
TRAV_149
62
0
66
1
70
9
0
VERTEX
8
TRAV_149
10
1800.000000
20
350.000000
30
695.000000
0
VERTEX
8
TRAV_149
10
0.000000
20
350.000000
30
695.000000
0
VERTEX
8
TRAV_149
10
0.000000
20
350.000000
30
750.000000
0
VERTEX
8
TRAV_149
10
1800.000000
20
350.000000
30
750.000000
0
SEQEND
0
POLYLINE
8
TRAV_149
62
0
66
1
70
9
0
VERTEX
8
TRAV_149
10
0.000000
20
350.000000
30
695.000000
0
VERTEX
8
TRAV_149
10
0.000000
20
230.000000
30
695.000000
0
VERTEX
8
TRAV_149
10
0.000000
20
230.000000
30
750.000000
0
VERTEX
8
TRAV_149
10
0.000000
20
350.000000
30
750.000000
0
SEQEND
0
POLYLINE
8
TRAV_149
62
0
66
1
70
9
0
VERTEX
8
TRAV_149
10
0.000000
20
230.000000
30
695.000000
0
VERTEX
8
TRAV_149
10
0.000000
20
350.000000
30
695.000000
0
VERTEX
8
TRAV_149
10
1800.000000
20
350.000000
30
695.000000
0
VERTEX
8
TRAV_149
10
1800.000000
20
230.000000
30
695.000000
0
SEQEND
0
POLYLINE
8
TRAV_149
62
0
66
1
70
9
0
VERTEX
8
TRAV_149
10
0.000000
20
230.000000
30
750.000000
0
VERTEX
8
TRAV_149
10
1800.000000
20
230.000000
30
750.000000
0
VERTEX
8
TRAV_149
10
1800.000000
20
350.000000
30
750.000000
0
VERTEX
8
TRAV_149
10
0.000000
20
350.000000
30
750.000000
0
SEQEND
0
POLYLINE
8
TRAV_149
62
0
66
1
70
9
0
VERTEX
8
TRAV_149
10
0.000000
20
110.000000
30
695.000000
0
VERTEX
8
TRAV_149
10
1800.000000
20
110.000000
30
695.000000
0
VERTEX
8
TRAV_149
10
1800.000000
20
110.000000
30
750.000000
0
VERTEX
8
TRAV_149
10
0.000000
20
110.000000
30
750.000000
0
SEQEND
0
POLYLINE
8
TRAV_149
62
0
66
1
70
9
0
VERTEX
8
TRAV_149
10
1800.000000
20
110.000000
30
695.000000
0
VERTEX
8
TRAV_149
10
1800.000000
20
230.000000
30
695.000000
0
VERTEX
8
TRAV_149
10
1800.000000
20
230.000000
30
750.000000
0
VERTEX
8
TRAV_149
10
1800.000000
20
110.000000
30
750.000000
0
SEQEND
0
POLYLINE
8
TRAV_149
62
0
66
1
70
9
0
VERTEX
8
TRAV_149
10
1800.000000
20
230.000000
30
695.000000
0
VERTEX
8
TRAV_149
10
0.000000
20
230.000000
30
695.000000
0
VERTEX
8
TRAV_149
10
0.000000
20
230.000000
30
750.000000
0
VERTEX
8
TRAV_149
10
1800.000000
20
230.000000
30
750.000000
0
SEQEND
0
POLYLINE
8
TRAV_149
62
0
66
1
70
9
0
VERTEX
8
TRAV_149
10
0.000000
20
230.000000
30
695.000000
0
VERTEX
8
TRAV_149
10
0.000000
20
110.000000
30
695.000000
0
VERTEX
8
TRAV_149
10
0.000000
20
110.000000
30
750.000000
0
VERTEX
8
TRAV_149
10
0.000000
20
230.000000
30
750.000000
0
SEQEND
0
POLYLINE
8
TRAV_149
62
0
66
1
70
9
0
VERTEX
8
TRAV_149
10
0.000000
20
110.000000
30
695.000000
0
VERTEX
8
TRAV_149
10
0.000000
20
230.000000
30
695.000000
0
VERTEX
8
TRAV_149
10
1800.000000
20
230.000000
30
695.000000
0
VERTEX
8
TRAV_149
10
1800.000000
20
110.000000
30
695.000000
0
SEQEND
0
POLYLINE
8
TRAV_149
62
0
66
1
70
9
0
VERTEX
8
TRAV_149
10
0.000000
20
110.000000
30
750.000000
0
VERTEX
8
TRAV_149
10
1800.000000
20
110.000000
30
750.000000
0
VERTEX
8
TRAV_149
10
1800.000000
20
230.000000
30
750.000000
0
VERTEX
8
TRAV_149
10
0.000000
20
230.000000
30
750.000000
0
SEQEND
0
POLYLINE
8
TRAV_149
62
0
66
1
70
9
0
VERTEX
8
TRAV_149
10
0.000000
20
0.000000
30
695.000000
0
VERTEX
8
TRAV_149
10
75.000000
20
0.000000
30
695.000000
0
VERTEX
8
TRAV_149
10
75.000000
20
0.000000
30
750.000000
0
VERTEX
8
TRAV_149
10
0.000000
20
0.000000
30
750.000000
0
SEQEND
0
POLYLINE
8
TRAV_149
62
0
66
1
70
9
0
VERTEX
8
TRAV_149
10
155.000000
20
0.000000
30
695.000000
0
VERTEX
8
TRAV_149
10
1645.000000
20
0.000000
30
695.000000
0
VERTEX
8
TRAV_149
10
1645.000000
20
0.000000
30
750.000000
0
VERTEX
8
TRAV_149
10
155.000000
20
0.000000
30
750.000000
0
SEQEND
0
POLYLINE
8
TRAV_149
62
0
66
1
70
9
0
VERTEX
8
TRAV_149
10
0.000000
20
0.000000
30
695.000000
0
VERTEX
8
TRAV_149
10
0.000000
20
110.000000
30
695.000000
0
VERTEX
8
TRAV_149
10
1800.000000
20
110.000000
30
695.000000
0
VERTEX
8
TRAV_149
10
1800.000000
20
0.000000
30
695.000000
0
VERTEX
8
TRAV_149
10
1725.000000
20
0.000000
30
695.000000
0
VERTEX
8
TRAV_149
10
1725.000000
20
15.000000
30
695.000000
0
VERTEX
8
TRAV_149
10
1645.000000
20
15.000000
30
695.000000
0
VERTEX
8
TRAV_149
10
1645.000000
20
0.000000
30
695.000000
0
VERTEX
8
TRAV_149
10
155.000000
20
0.000000
30
695.000000
0
VERTEX
8
TRAV_149
10
155.000000
20
15.000000
30
695.000000
0
VERTEX
8
TRAV_149
10
75.000000
20
15.000000
30
695.000000
0
VERTEX
8
TRAV_149
10
75.000000
20
0.000000
30
695.000000
0
SEQEND
0
POLYLINE
8
TRAV_149
62
0
66
1
70
9
0
VERTEX
8
TRAV_149
10
0.000000
20
0.000000
30
750.000000
0
VERTEX
8
TRAV_149
10
75.000000
20
0.000000
30
750.000000
0
VERTEX
8
TRAV_149
10
75.000000
20
15.000000
30
750.000000
0
VERTEX
8
TRAV_149
10
155.000000
20
15.000000
30
750.000000
0
VERTEX
8
TRAV_149
10
155.000000
20
0.000000
30
750.000000
0
VERTEX
8
TRAV_149
10
1645.000000
20
0.000000
30
750.000000
0
VERTEX
8
TRAV_149
10
1645.000000
20
15.000000
30
750.000000
0
VERTEX
8
TRAV_149
10
1725.000000
20
15.000000
30
750.000000
0
VERTEX
8
TRAV_149
10
1725.000000
20
0.000000
30
750.000000
0
VERTEX
8
TRAV_149
10
1800.000000
20
0.000000
30
750.000000
0
VERTEX
8
TRAV_149
10
1800.000000
20
110.000000
30
750.000000
0
VERTEX
8
TRAV_149
10
0.000000
20
110.000000
30
750.000000
0
SEQEND
0
POLYLINE
8
TRAV_149
62
0
66
1
70
9
0
VERTEX
8
TRAV_149
10
155.000000
20
15.000000
30
695.000000
0
VERTEX
8
TRAV_149
10
155.000000
20
15.000000
30
750.000000
0
VERTEX
8
TRAV_149
10
75.000000
20
15.000000
30
750.000000
0
VERTEX
8
TRAV_149
10
75.000000
20
15.000000
30
695.000000
0
SEQEND
0
POLYLINE
8
TRAV_149
62
0
66
1
70
9
0
VERTEX
8
TRAV_149
10
155.000000
20
0.000000
30
695.000000
0
VERTEX
8
TRAV_149
10
155.000000
20
0.000000
30
750.000000
0
VERTEX
8
TRAV_149
10
155.000000
20
15.000000
30
750.000000
0
VERTEX
8
TRAV_149
10
155.000000
20
15.000000
30
695.000000
0
SEQEND
0
POLYLINE
8
TRAV_149
62
0
66
1
70
9
0
VERTEX
8
TRAV_149
10
75.000000
20
15.000000
30
695.000000
0
VERTEX
8
TRAV_149
10
75.000000
20
15.000000
30
750.000000
0
VERTEX
8
TRAV_149
10
75.000000
20
0.000000
30
750.000000
0
VERTEX
8
TRAV_149
10
75.000000
20
0.000000
30
695.000000
0
SEQEND
0
POLYLINE
8
TRAV_149
62
0
66
1
70
9
0
VERTEX
8
TRAV_149
10
1725.000000
20
0.000000
30
695.000000
0
VERTEX
8
TRAV_149
10
1800.000000
20
0.000000
30
695.000000
0
VERTEX
8
TRAV_149
10
1800.000000
20
0.000000
30
750.000000
0
VERTEX
8
TRAV_149
10
1725.000000
20
0.000000
30
750.000000
0
SEQEND
0
POLYLINE
8
TRAV_149
62
0
66
1
70
9
0
VERTEX
8
TRAV_149
10
1725.000000
20
15.000000
30
695.000000
0
VERTEX
8
TRAV_149
10
1725.000000
20
15.000000
30
750.000000
0
VERTEX
8
TRAV_149
10
1645.000000
20
15.000000
30
750.000000
0
VERTEX
8
TRAV_149
10
1645.000000
20
15.000000
30
695.000000
0
SEQEND
0
POLYLINE
8
TRAV_149
62
0
66
1
70
9
0
VERTEX
8
TRAV_149
10
1725.000000
20
0.000000
30
695.000000
0
VERTEX
8
TRAV_149
10
1725.000000
20
0.000000
30
750.000000
0
VERTEX
8
TRAV_149
10
1725.000000
20
15.000000
30
750.000000
0
VERTEX
8
TRAV_149
10
1725.000000
20
15.000000
30
695.000000
0
SEQEND
0
POLYLINE
8
TRAV_149
62
0
66
1
70
9
0
VERTEX
8
TRAV_149
10
1645.000000
20
15.000000
30
695.000000
0
VERTEX
8
TRAV_149
10
1645.000000
20
15.000000
30
750.000000
0
VERTEX
8
TRAV_149
10
1645.000000
20
0.000000
30
750.000000
0
VERTEX
8
TRAV_149
10
1645.000000
20
0.000000
30
695.000000
0
SEQEND
0
POLYLINE
8
TRAV_149
62
0
66
1
70
9
0
VERTEX
8
TRAV_149
10
1800.000000
20
0.000000
30
695.000000
0
VERTEX
8
TRAV_149
10
1800.000000
20
110.000000
30
695.000000
0
VERTEX
8
TRAV_149
10
1800.000000
20
110.000000
30
750.000000
0
VERTEX
8
TRAV_149
10
1800.000000
20
0.000000
30
750.000000
0
SEQEND
0
POLYLINE
8
TRAV_149
62
0
66
1
70
9
0
VERTEX
8
TRAV_149
10
1800.000000
20
110.000000
30
695.000000
0
VERTEX
8
TRAV_149
10
0.000000
20
110.000000
30
695.000000
0
VERTEX
8
TRAV_149
10
0.000000
20
110.000000
30
750.000000
0
VERTEX
8
TRAV_149
10
1800.000000
20
110.000000
30
750.000000
0
SEQEND
0
POLYLINE
8
TRAV_149
62
0
66
1
70
9
0
VERTEX
8
TRAV_149
10
0.000000
20
110.000000
30
695.000000
0
VERTEX
8
TRAV_149
10
0.000000
20
0.000000
30
695.000000
0
VERTEX
8
TRAV_149
10
0.000000
20
0.000000
30
750.000000
0
VERTEX
8
TRAV_149
10
0.000000
20
110.000000
30
750.000000
0
SEQEND
0
POLYLINE
8
TRAV_149
62
0
66
1
70
9
0
VERTEX
8
TRAV_149
10
1725.000000
20
15.486152
30
643.663532
0
VERTEX
8
TRAV_149
10
1725.000000
20
122.402375
30
37.311499
0
VERTEX
8
TRAV_149
10
1645.000000
20
122.402375
30
37.311499
0
VERTEX
8
TRAV_149
10
1645.000000
20
15.486152
30
643.663532
0
SEQEND
0
POLYLINE
8
TRAV_149
62
0
66
1
70
9
0
VERTEX
8
TRAV_149
10
1645.000000
20
15.000000
30
649.220274
0
VERTEX
8
TRAV_149
10
1645.000000
20
15.000000
30
750.000000
0
VERTEX
8
TRAV_149
10
1725.000000
20
15.000000
30
750.000000
0
VERTEX
8
TRAV_149
10
1725.000000
20
15.000000
30
649.220274
0
SEQEND
0
POLYLINE
8
TRAV_149
62
0
66
1
70
9
0
VERTEX
8
TRAV_149
10
1725.000000
20
841.350466
30
28.921324
0
VERTEX
8
TRAV_149
10
1725.000000
20
949.392111
30
641.553067
0
VERTEX
8
TRAV_149
10
1725.000000
20
949.519436
30
642.318365
0
VERTEX
8
TRAV_149
10
1725.000000
20
949.631895
30
643.085988
0
VERTEX
8
TRAV_149
10
1725.000000
20
949.729445
30
643.855648
0
VERTEX
8
TRAV_149
10
1725.000000
20
949.812050
30
644.627055
0
VERTEX
8
TRAV_149
10
1725.000000
20
949.879678
30
645.399919
0
VERTEX
8
TRAV_149
10
1725.000000
20
949.932304
30
646.173950
0
VERTEX
8
TRAV_149
10
1725.000000
20
949.969908
30
646.948855
0
VERTEX
8
TRAV_149
10
1725.000000
20
949.992476
30
647.724344
0
VERTEX
8
TRAV_149
10
1725.000000
20
950.000000
30
648.500125
0
VERTEX
8
TRAV_149
10
1725.000000
20
950.000000
30
750.000000
0
VERTEX
8
TRAV_149
10
1725.000000
20
935.000000
30
750.000000
0
VERTEX
8
TRAV_149
10
1725.000000
20
935.000000
30
649.220274
0
VERTEX
8
TRAV_149
10
1725.000000
20
934.993983
30
648.599752
0
VERTEX
8
TRAV_149
10
1725.000000
20
934.975934
30
647.979462
0
VERTEX
8
TRAV_149
10
1725.000000
20
934.945861
30
647.359640
0
VERTEX
8
TRAV_149
10
1725.000000
20
934.903774
30
646.740517
0
VERTEX
8
TRAV_149
10
1725.000000
20
934.849689
30
646.122326
0
VERTEX
8
TRAV_149
10
1725.000000
20
934.783627
30
645.505301
0
VERTEX
8
TRAV_149
10
1725.000000
20
934.705613
30
644.889673
0
VERTEX
8
TRAV_149
10
1725.000000
20
934.615675
30
644.275673
0
VERTEX
8
TRAV_149
10
1725.000000
20
934.513848
30
643.663532
0
VERTEX
8
TRAV_149
10
1725.000000
20
827.597625
30
37.311499
0
VERTEX
8
TRAV_149
10
1725.000000
20
826.553816
30
33.259184
0
VERTEX
8
TRAV_149
10
1725.000000
20
824.896384
30
29.416825
0
VERTEX
8
TRAV_149
10
1725.000000
20
822.665142
30
25.876718
0
VERTEX
8
TRAV_149
10
1725.000000
20
819.913684
30
22.723897
0
VERTEX
8
TRAV_149
10
1725.000000
20
816.708101
30
20.034094
0
VERTEX
8
TRAV_149
10
1725.000000
20
813.125393
30
17.871919
0
VERTEX
8
TRAV_149
10
1725.000000
20
809.251617
30
16.289307
0
VERTEX
8
TRAV_149
10
1725.000000
20
805.179823
30
15.324274
0
VERTEX
8
TRAV_149
10
1725.000000
20
801.007815
30
15.000000
0
VERTEX
8
TRAV_149
10
1725.000000
20
148.992185
30
15.000000
0
VERTEX
8
TRAV_149
10
1725.000000
20
144.820177
30
15.324274
0
VERTEX
8
TRAV_149
10
1725.000000
20
140.748383
30
16.289307
0
VERTEX
8
TRAV_149
10
1725.000000
20
136.874607
30
17.871919
0
VERTEX
8
TRAV_149
10
1725.000000
20
133.291899
30
20.034094
0
VERTEX
8
TRAV_149
10
1725.000000
20
130.086316
30
22.723897
0
VERTEX
8
TRAV_149
10
1725.000000
20
127.334858
30
25.876718
0
VERTEX
8
TRAV_149
10
1725.000000
20
125.103616
30
29.416825
0
VERTEX
8
TRAV_149
10
1725.000000
20
123.446184
30
33.259184
0
VERTEX
8
TRAV_149
10
1725.000000
20
122.402375
30
37.311499
0
VERTEX
8
TRAV_149
10
1725.000000
20
15.486152
30
643.663532
0
VERTEX
8
TRAV_149
10
1725.000000
20
15.384325
30
644.275673
0
VERTEX
8
TRAV_149
10
1725.000000
20
15.294387
30
644.889673
0
VERTEX
8
TRAV_149
10
1725.000000
20
15.216373
30
645.505301
0
VERTEX
8
TRAV_149
10
1725.000000
20
15.150311
30
646.122326
0
VERTEX
8
TRAV_149
10
1725.000000
20
15.096226
30
646.740517
0
VERTEX
8
TRAV_149
10
1725.000000
20
15.054139
30
647.359640
0
VERTEX
8
TRAV_149
10
1725.000000
20
15.024066
30
647.979462
0
VERTEX
8
TRAV_149
10
1725.000000
20
15.006017
30
648.599752
0
VERTEX
8
TRAV_149
10
1725.000000
20
15.000000
30
649.220274
0
VERTEX
8
TRAV_149
10
1725.000000
20
15.000000
30
750.000000
0
VERTEX
8
TRAV_149
10
1725.000000
20
0.000000
30
750.000000
0
VERTEX
8
TRAV_149
10
1725.000000
20
0.000000
30
648.500125
0
VERTEX
8
TRAV_149
10
1725.000000
20
0.007524
30
647.724344
0
VERTEX
8
TRAV_149
10
1725.000000
20
0.030092
30
646.948855
0
VERTEX
8
TRAV_149
10
1725.000000
20
0.067696
30
646.173950
0
VERTEX
8
TRAV_149
10
1725.000000
20
0.120322
30
645.399919
0
VERTEX
8
TRAV_149
10
1725.000000
20
0.187950
30
644.627055
0
VERTEX
8
TRAV_149
10
1725.000000
20
0.270555
30
643.855648
0
VERTEX
8
TRAV_149
10
1725.000000
20
0.368105
30
643.085988
0
VERTEX
8
TRAV_149
10
1725.000000
20
0.480564
30
642.318365
0
VERTEX
8
TRAV_149
10
1725.000000
20
0.607889
30
641.553067
0
VERTEX
8
TRAV_149
10
1725.000000
20
108.649534
30
28.921324
0
VERTEX
8
TRAV_149
10
1725.000000
20
110.002734
30
23.668467
0
VERTEX
8
TRAV_149
10
1725.000000
20
112.151332
30
18.687785
0
VERTEX
8
TRAV_149
10
1725.000000
20
115.043719
30
14.098912
0
VERTEX
8
TRAV_149
10
1725.000000
20
118.610422
30
10.012068
0
VERTEX
8
TRAV_149
10
1725.000000
20
122.765772
30
6.525418
0
VERTEX
8
TRAV_149
10
1725.000000
20
127.409959
30
3.722707
0
VERTEX
8
TRAV_149
10
1725.000000
20
132.431434
30
1.671256
0
VERTEX
8
TRAV_149
10
1725.000000
20
137.709583
30
0.420338
0
VERTEX
8
TRAV_149
10
1725.000000
20
143.117631
30
0.000000
0
VERTEX
8
TRAV_149
10
1725.000000
20
806.882369
30
-0.000000
0
VERTEX
8
TRAV_149
10
1725.000000
20
812.290417
30
0.420338
0
VERTEX
8
TRAV_149
10
1725.000000
20
817.568566
30
1.671256
0
VERTEX
8
TRAV_149
10
1725.000000
20
822.590041
30
3.722707
0
VERTEX
8
TRAV_149
10
1725.000000
20
827.234228
30
6.525418
0
VERTEX
8
TRAV_149
10
1725.000000
20
831.389578
30
10.012068
0
VERTEX
8
TRAV_149
10
1725.000000
20
834.956281
30
14.098912
0
VERTEX
8
TRAV_149
10
1725.000000
20
837.848668
30
18.687785
0
VERTEX
8
TRAV_149
10
1725.000000
20
839.997266
30
23.668467
0
SEQEND
0
POLYLINE
8
TRAV_149
62
0
66
1
70
9
0
VERTEX
8
TRAV_149
10
1645.000000
20
827.597625
30
37.311499
0
VERTEX
8
TRAV_149
10
1645.000000
20
934.513848
30
643.663532
0
VERTEX
8
TRAV_149
10
1645.000000
20
934.615675
30
644.275673
0
VERTEX
8
TRAV_149
10
1645.000000
20
934.705613
30
644.889673
0
VERTEX
8
TRAV_149
10
1645.000000
20
934.783627
30
645.505301
0
VERTEX
8
TRAV_149
10
1645.000000
20
934.849689
30
646.122326
0
VERTEX
8
TRAV_149
10
1645.000000
20
934.903774
30
646.740517
0
VERTEX
8
TRAV_149
10
1645.000000
20
934.945861
30
647.359640
0
VERTEX
8
TRAV_149
10
1645.000000
20
934.975934
30
647.979462
0
VERTEX
8
TRAV_149
10
1645.000000
20
934.993983
30
648.599752
0
VERTEX
8
TRAV_149
10
1645.000000
20
935.000000
30
649.220274
0
VERTEX
8
TRAV_149
10
1645.000000
20
935.000000
30
750.000000
0
VERTEX
8
TRAV_149
10
1645.000000
20
950.000000
30
750.000000
0
VERTEX
8
TRAV_149
10
1645.000000
20
950.000000
30
648.500125
0
VERTEX
8
TRAV_149
10
1645.000000
20
949.992476
30
647.724344
0
VERTEX
8
TRAV_149
10
1645.000000
20
949.969908
30
646.948855
0
VERTEX
8
TRAV_149
10
1645.000000
20
949.932304
30
646.173950
0
VERTEX
8
TRAV_149
10
1645.000000
20
949.879678
30
645.399919
0
VERTEX
8
TRAV_149
10
1645.000000
20
949.812050
30
644.627055
0
VERTEX
8
TRAV_149
10
1645.000000
20
949.729445
30
643.855648
0
VERTEX
8
TRAV_149
10
1645.000000
20
949.631895
30
643.085988
0
VERTEX
8
TRAV_149
10
1645.000000
20
949.519436
30
642.318365
0
VERTEX
8
TRAV_149
10
1645.000000
20
949.392111
30
641.553067
0
VERTEX
8
TRAV_149
10
1645.000000
20
841.350466
30
28.921324
0
VERTEX
8
TRAV_149
10
1645.000000
20
839.997266
30
23.668467
0
VERTEX
8
TRAV_149
10
1645.000000
20
837.848668
30
18.687785
0
VERTEX
8
TRAV_149
10
1645.000000
20
834.956281
30
14.098912
0
VERTEX
8
TRAV_149
10
1645.000000
20
831.389578
30
10.012068
0
VERTEX
8
TRAV_149
10
1645.000000
20
827.234228
30
6.525418
0
VERTEX
8
TRAV_149
10
1645.000000
20
822.590041
30
3.722707
0
VERTEX
8
TRAV_149
10
1645.000000
20
817.568566
30
1.671256
0
VERTEX
8
TRAV_149
10
1645.000000
20
812.290417
30
0.420338
0
VERTEX
8
TRAV_149
10
1645.000000
20
806.882369
30
-0.000000
0
VERTEX
8
TRAV_149
10
1645.000000
20
143.117631
30
0.000000
0
VERTEX
8
TRAV_149
10
1645.000000
20
137.709583
30
0.420338
0
VERTEX
8
TRAV_149
10
1645.000000
20
132.431434
30
1.671256
0
VERTEX
8
TRAV_149
10
1645.000000
20
127.409959
30
3.722707
0
VERTEX
8
TRAV_149
10
1645.000000
20
122.765772
30
6.525418
0
VERTEX
8
TRAV_149
10
1645.000000
20
118.610422
30
10.012068
0
VERTEX
8
TRAV_149
10
1645.000000
20
115.043719
30
14.098912
0
VERTEX
8
TRAV_149
10
1645.000000
20
112.151332
30
18.687785
0
VERTEX
8
TRAV_149
10
1645.000000
20
110.002734
30
23.668467
0
VERTEX
8
TRAV_149
10
1645.000000
20
108.649534
30
28.921324
0
VERTEX
8
TRAV_149
10
1645.000000
20
0.607889
30
641.553067
0
VERTEX
8
TRAV_149
10
1645.000000
20
0.480564
30
642.318365
0
VERTEX
8
TRAV_149
10
1645.000000
20
0.368105
30
643.085988
0
VERTEX
8
TRAV_149
10
1645.000000
20
0.270555
30
643.855648
0
VERTEX
8
TRAV_149
10
1645.000000
20
0.187950
30
644.627055
0
VERTEX
8
TRAV_149
10
1645.000000
20
0.120322
30
645.399919
0
VERTEX
8
TRAV_149
10
1645.000000
20
0.067696
30
646.173950
0
VERTEX
8
TRAV_149
10
1645.000000
20
0.030092
30
646.948855
0
VERTEX
8
TRAV_149
10
1645.000000
20
0.007524
30
647.724344
0
VERTEX
8
TRAV_149
10
1645.000000
20
0.000000
30
648.500125
0
VERTEX
8
TRAV_149
10
1645.000000
20
0.000000
30
750.000000
0
VERTEX
8
TRAV_149
10
1645.000000
20
15.000000
30
750.000000
0
VERTEX
8
TRAV_149
10
1645.000000
20
15.000000
30
649.220274
0
VERTEX
8
TRAV_149
10
1645.000000
20
15.006017
30
648.599752
0
VERTEX
8
TRAV_149
10
1645.000000
20
15.024066
30
647.979462
0
VERTEX
8
TRAV_149
10
1645.000000
20
15.054139
30
647.359640
0
VERTEX
8
TRAV_149
10
1645.000000
20
15.096226
30
646.740517
0
VERTEX
8
TRAV_149
10
1645.000000
20
15.150311
30
646.122326
0
VERTEX
8
TRAV_149
10
1645.000000
20
15.216373
30
645.505301
0
VERTEX
8
TRAV_149
10
1645.000000
20
15.294387
30
644.889673
0
VERTEX
8
TRAV_149
10
1645.000000
20
15.384325
30
644.275673
0
VERTEX
8
TRAV_149
10
1645.000000
20
15.486152
30
643.663532
0
VERTEX
8
TRAV_149
10
1645.000000
20
122.402375
30
37.311499
0
VERTEX
8
TRAV_149
10
1645.000000
20
123.446184
30
33.259184
0
VERTEX
8
TRAV_149
10
1645.000000
20
125.103616
30
29.416825
0
VERTEX
8
TRAV_149
10
1645.000000
20
127.334858
30
25.876718
0
VERTEX
8
TRAV_149
10
1645.000000
20
130.086316
30
22.723897
0
VERTEX
8
TRAV_149
10
1645.000000
20
133.291899
30
20.034094
0
VERTEX
8
TRAV_149
10
1645.000000
20
136.874607
30
17.871919
0
VERTEX
8
TRAV_149
10
1645.000000
20
140.748383
30
16.289307
0
VERTEX
8
TRAV_149
10
1645.000000
20
144.820177
30
15.324274
0
VERTEX
8
TRAV_149
10
1645.000000
20
148.992185
30
15.000000
0
VERTEX
8
TRAV_149
10
1645.000000
20
801.007815
30
15.000000
0
VERTEX
8
TRAV_149
10
1645.000000
20
805.179823
30
15.324274
0
VERTEX
8
TRAV_149
10
1645.000000
20
809.251617
30
16.289307
0
VERTEX
8
TRAV_149
10
1645.000000
20
813.125393
30
17.871919
0
VERTEX
8
TRAV_149
10
1645.000000
20
816.708101
30
20.034094
0
VERTEX
8
TRAV_149
10
1645.000000
20
819.913684
30
22.723897
0
VERTEX
8
TRAV_149
10
1645.000000
20
822.665142
30
25.876718
0
VERTEX
8
TRAV_149
10
1645.000000
20
824.896384
30
29.416825
0
VERTEX
8
TRAV_149
10
1645.000000
20
826.553816
30
33.259184
0
SEQEND
0
POLYLINE
8
TRAV_149
62
0
66
1
70
9
0
VERTEX
8
TRAV_149
10
1725.000000
20
15.384325
30
644.275673
0
VERTEX
8
TRAV_149
10
1725.000000
20
15.486152
30
643.663532
0
VERTEX
8
TRAV_149
10
1645.000000
20
15.486152
30
643.663532
0
VERTEX
8
TRAV_149
10
1645.000000
20
15.384325
30
644.275673
0
SEQEND
0
POLYLINE
8
TRAV_149
62
0
66
1
70
9
0
VERTEX
8
TRAV_149
10
1725.000000
20
15.000000
30
649.220274
0
VERTEX
8
TRAV_149
10
1725.000000
20
15.006017
30
648.599752
0
VERTEX
8
TRAV_149
10
1645.000000
20
15.006017
30
648.599752
0
VERTEX
8
TRAV_149
10
1645.000000
20
15.000000
30
649.220274
0
SEQEND
0
POLYLINE
8
TRAV_149
62
0
66
1
70
9
0
VERTEX
8
TRAV_149
10
1645.000000
20
0.607889
30
641.553067
0
VERTEX
8
TRAV_149
10
1645.000000
20
108.649534
30
28.921324
0
VERTEX
8
TRAV_149
10
1725.000000
20
108.649534
30
28.921324
0
VERTEX
8
TRAV_149
10
1725.000000
20
0.607889
30
641.553067
0
SEQEND
0
POLYLINE
8
TRAV_149
62
0
66
1
70
9
0
VERTEX
8
TRAV_149
10
1725.000000
20
0.000000
30
648.500125
0
VERTEX
8
TRAV_149
10
1725.000000
20
0.000000
30
750.000000
0
VERTEX
8
TRAV_149
10
1645.000000
20
0.000000
30
750.000000
0
VERTEX
8
TRAV_149
10
1645.000000
20
0.000000
30
648.500125
0
SEQEND
0
POLYLINE
8
TRAV_149
62
0
66
1
70
9
0
VERTEX
8
TRAV_149
10
1725.000000
20
0.007524
30
647.724344
0
VERTEX
8
TRAV_149
10
1725.000000
20
0.000000
30
648.500125
0
VERTEX
8
TRAV_149
10
1645.000000
20
0.000000
30
648.500125
0
VERTEX
8
TRAV_149
10
1645.000000
20
0.007524
30
647.724344
0
SEQEND
0
POLYLINE
8
TRAV_149
62
0
66
1
70
9
0
VERTEX
8
TRAV_149
10
1725.000000
20
0.030092
30
646.948855
0
VERTEX
8
TRAV_149
10
1725.000000
20
0.007524
30
647.724344
0
VERTEX
8
TRAV_149
10
1645.000000
20
0.007524
30
647.724344
0
VERTEX
8
TRAV_149
10
1645.000000
20
0.030092
30
646.948855
0
SEQEND
0
POLYLINE
8
TRAV_149
62
0
66
1
70
9
0
VERTEX
8
TRAV_149
10
1725.000000
20
0.067696
30
646.173950
0
VERTEX
8
TRAV_149
10
1725.000000
20
0.030092
30
646.948855
0
VERTEX
8
TRAV_149
10
1645.000000
20
0.030092
30
646.948855
0
VERTEX
8
TRAV_149
10
1645.000000
20
0.067696
30
646.173950
0
SEQEND
0
POLYLINE
8
TRAV_149
62
0
66
1
70
9
0
VERTEX
8
TRAV_149
10
1725.000000
20
0.120322
30
645.399919
0
VERTEX
8
TRAV_149
10
1725.000000
20
0.067696
30
646.173950
0
VERTEX
8
TRAV_149
10
1645.000000
20
0.067696
30
646.173950
0
VERTEX
8
TRAV_149
10
1645.000000
20
0.120322
30
645.399919
0
SEQEND
0
POLYLINE
8
TRAV_149
62
0
66
1
70
9
0
VERTEX
8
TRAV_149
10
1725.000000
20
0.187950
30
644.627055
0
VERTEX
8
TRAV_149
10
1725.000000
20
0.120322
30
645.399919
0
VERTEX
8
TRAV_149
10
1645.000000
20
0.120322
30
645.399919
0
VERTEX
8
TRAV_149
10
1645.000000
20
0.187950
30
644.627055
0
SEQEND
0
POLYLINE
8
TRAV_149
62
0
66
1
70
9
0
VERTEX
8
TRAV_149
10
1725.000000
20
0.270555
30
643.855648
0
VERTEX
8
TRAV_149
10
1725.000000
20
0.187950
30
644.627055
0
VERTEX
8
TRAV_149
10
1645.000000
20
0.187950
30
644.627055
0
VERTEX
8
TRAV_149
10
1645.000000
20
0.270555
30
643.855648
0
SEQEND
0
POLYLINE
8
TRAV_149
62
0
66
1
70
9
0
VERTEX
8
TRAV_149
10
1725.000000
20
0.368105
30
643.085988
0
VERTEX
8
TRAV_149
10
1725.000000
20
0.270555
30
643.855648
0
VERTEX
8
TRAV_149
10
1645.000000
20
0.270555
30
643.855648
0
VERTEX
8
TRAV_149
10
1645.000000
20
0.368105
30
643.085988
0
SEQEND
0
POLYLINE
8
TRAV_149
62
0
66
1
70
9
0
VERTEX
8
TRAV_149
10
1725.000000
20
0.480564
30
642.318365
0
VERTEX
8
TRAV_149
10
1725.000000
20
0.368105
30
643.085988
0
VERTEX
8
TRAV_149
10
1645.000000
20
0.368105
30
643.085988
0
VERTEX
8
TRAV_149
10
1645.000000
20
0.480564
30
642.318365
0
SEQEND
0
POLYLINE
8
TRAV_149
62
0
66
1
70
9
0
VERTEX
8
TRAV_149
10
1725.000000
20
0.607889
30
641.553067
0
VERTEX
8
TRAV_149
10
1725.000000
20
0.480564
30
642.318365
0
VERTEX
8
TRAV_149
10
1645.000000
20
0.480564
30
642.318365
0
VERTEX
8
TRAV_149
10
1645.000000
20
0.607889
30
641.553067
0
SEQEND
0
POLYLINE
8
TRAV_149
62
0
66
1
70
9
0
VERTEX
8
TRAV_149
10
1725.000000
20
827.597625
30
37.311499
0
VERTEX
8
TRAV_149
10
1725.000000
20
934.513848
30
643.663532
0
VERTEX
8
TRAV_149
10
1645.000000
20
934.513848
30
643.663532
0
VERTEX
8
TRAV_149
10
1645.000000
20
827.597625
30
37.311499
0
SEQEND
0
POLYLINE
8
TRAV_149
62
0
66
1
70
9
0
VERTEX
8
TRAV_149
10
1725.000000
20
935.000000
30
649.220274
0
VERTEX
8
TRAV_149
10
1725.000000
20
935.000000
30
750.000000
0
VERTEX
8
TRAV_149
10
1645.000000
20
935.000000
30
750.000000
0
VERTEX
8
TRAV_149
10
1645.000000
20
935.000000
30
649.220274
0
SEQEND
0
POLYLINE
8
TRAV_149
62
0
66
1
70
9
0
VERTEX
8
TRAV_149
10
1645.000000
20
934.615675
30
644.275673
0
VERTEX
8
TRAV_149
10
1645.000000
20
934.513848
30
643.663532
0
VERTEX
8
TRAV_149
10
1725.000000
20
934.513848
30
643.663532
0
VERTEX
8
TRAV_149
10
1725.000000
20
934.615675
30
644.275673
0
SEQEND
0
POLYLINE
8
TRAV_149
62
0
66
1
70
9
0
VERTEX
8
TRAV_149
10
1645.000000
20
935.000000
30
649.220274
0
VERTEX
8
TRAV_149
10
1645.000000
20
934.993983
30
648.599752
0
VERTEX
8
TRAV_149
10
1725.000000
20
934.993983
30
648.599752
0
VERTEX
8
TRAV_149
10
1725.000000
20
935.000000
30
649.220274
0
SEQEND
0
POLYLINE
8
TRAV_149
62
0
66
1
70
9
0
VERTEX
8
TRAV_149
10
1645.000000
20
841.350466
30
28.921324
0
VERTEX
8
TRAV_149
10
1645.000000
20
949.392111
30
641.553067
0
VERTEX
8
TRAV_149
10
1725.000000
20
949.392111
30
641.553067
0
VERTEX
8
TRAV_149
10
1725.000000
20
841.350466
30
28.921324
0
SEQEND
0
POLYLINE
8
TRAV_149
62
0
66
1
70
9
0
VERTEX
8
TRAV_149
10
1645.000000
20
950.000000
30
648.500125
0
VERTEX
8
TRAV_149
10
1645.000000
20
950.000000
30
750.000000
0
VERTEX
8
TRAV_149
10
1725.000000
20
950.000000
30
750.000000
0
VERTEX
8
TRAV_149
10
1725.000000
20
950.000000
30
648.500125
0
SEQEND
0
POLYLINE
8
TRAV_149
62
0
66
1
70
9
0
VERTEX
8
TRAV_149
10
1645.000000
20
949.992476
30
647.724344
0
VERTEX
8
TRAV_149
10
1645.000000
20
950.000000
30
648.500125
0
VERTEX
8
TRAV_149
10
1725.000000
20
950.000000
30
648.500125
0
VERTEX
8
TRAV_149
10
1725.000000
20
949.992476
30
647.724344
0
SEQEND
0
POLYLINE
8
TRAV_149
62
0
66
1
70
9
0
VERTEX
8
TRAV_149
10
1645.000000
20
949.969908
30
646.948855
0
VERTEX
8
TRAV_149
10
1645.000000
20
949.992476
30
647.724344
0
VERTEX
8
TRAV_149
10
1725.000000
20
949.992476
30
647.724344
0
VERTEX
8
TRAV_149
10
1725.000000
20
949.969908
30
646.948855
0
SEQEND
0
POLYLINE
8
TRAV_149
62
0
66
1
70
9
0
VERTEX
8
TRAV_149
10
1645.000000
20
949.932304
30
646.173950
0
VERTEX
8
TRAV_149
10
1645.000000
20
949.969908
30
646.948855
0
VERTEX
8
TRAV_149
10
1725.000000
20
949.969908
30
646.948855
0
VERTEX
8
TRAV_149
10
1725.000000
20
949.932304
30
646.173950
0
SEQEND
0
POLYLINE
8
TRAV_149
62
0
66
1
70
9
0
VERTEX
8
TRAV_149
10
1645.000000
20
949.879678
30
645.399919
0
VERTEX
8
TRAV_149
10
1645.000000
20
949.932304
30
646.173950
0
VERTEX
8
TRAV_149
10
1725.000000
20
949.932304
30
646.173950
0
VERTEX
8
TRAV_149
10
1725.000000
20
949.879678
30
645.399919
0
SEQEND
0
POLYLINE
8
TRAV_149
62
0
66
1
70
9
0
VERTEX
8
TRAV_149
10
1645.000000
20
949.812050
30
644.627055
0
VERTEX
8
TRAV_149
10
1645.000000
20
949.879678
30
645.399919
0
VERTEX
8
TRAV_149
10
1725.000000
20
949.879678
30
645.399919
0
VERTEX
8
TRAV_149
10
1725.000000
20
949.812050
30
644.627055
0
SEQEND
0
POLYLINE
8
TRAV_149
62
0
66
1
70
9
0
VERTEX
8
TRAV_149
10
1645.000000
20
949.729445
30
643.855648
0
VERTEX
8
TRAV_149
10
1645.000000
20
949.812050
30
644.627055
0
VERTEX
8
TRAV_149
10
1725.000000
20
949.812050
30
644.627055
0
VERTEX
8
TRAV_149
10
1725.000000
20
949.729445
30
643.855648
0
SEQEND
0
POLYLINE
8
TRAV_149
62
0
66
1
70
9
0
VERTEX
8
TRAV_149
10
1645.000000
20
949.631895
30
643.085988
0
VERTEX
8
TRAV_149
10
1645.000000
20
949.729445
30
643.855648
0
VERTEX
8
TRAV_149
10
1725.000000
20
949.729445
30
643.855648
0
VERTEX
8
TRAV_149
10
1725.000000
20
949.631895
30
643.085988
0
SEQEND
0
POLYLINE
8
TRAV_149
62
0
66
1
70
9
0
VERTEX
8
TRAV_149
10
1645.000000
20
949.519436
30
642.318365
0
VERTEX
8
TRAV_149
10
1645.000000
20
949.631895
30
643.085988
0
VERTEX
8
TRAV_149
10
1725.000000
20
949.631895
30
643.085988
0
VERTEX
8
TRAV_149
10
1725.000000
20
949.519436
30
642.318365
0
SEQEND
0
POLYLINE
8
TRAV_149
62
0
66
1
70
9
0
VERTEX
8
TRAV_149
10
1645.000000
20
949.392111
30
641.553067
0
VERTEX
8
TRAV_149
10
1645.000000
20
949.519436
30
642.318365
0
VERTEX
8
TRAV_149
10
1725.000000
20
949.519436
30
642.318365
0
VERTEX
8
TRAV_149
10
1725.000000
20
949.392111
30
641.553067
0
SEQEND
0
POLYLINE
8
TRAV_149
62
0
66
1
70
9
0
VERTEX
8
TRAV_149
10
1725.000000
20
148.992185
30
15.000000
0
VERTEX
8
TRAV_149
10
1725.000000
20
801.007815
30
15.000000
0
VERTEX
8
TRAV_149
10
1645.000000
20
801.007815
30
15.000000
0
VERTEX
8
TRAV_149
10
1645.000000
20
148.992185
30
15.000000
0
SEQEND
0
POLYLINE
8
TRAV_149
62
0
66
1
70
9
0
VERTEX
8
TRAV_149
10
1725.000000
20
144.820177
30
15.324274
0
VERTEX
8
TRAV_149
10
1725.000000
20
148.992185
30
15.000000
0
VERTEX
8
TRAV_149
10
1645.000000
20
148.992185
30
15.000000
0
VERTEX
8
TRAV_149
10
1645.000000
20
144.820177
30
15.324274
0
SEQEND
0
POLYLINE
8
TRAV_149
62
0
66
1
70
9
0
VERTEX
8
TRAV_149
10
1725.000000
20
122.402375
30
37.311499
0
VERTEX
8
TRAV_149
10
1725.000000
20
123.446184
30
33.259184
0
VERTEX
8
TRAV_149
10
1645.000000
20
123.446184
30
33.259184
0
VERTEX
8
TRAV_149
10
1645.000000
20
122.402375
30
37.311499
0
SEQEND
0
POLYLINE
8
TRAV_149
62
0
66
1
70
9
0
VERTEX
8
TRAV_149
10
1645.000000
20
805.179823
30
15.324274
0
VERTEX
8
TRAV_149
10
1645.000000
20
801.007815
30
15.000000
0
VERTEX
8
TRAV_149
10
1725.000000
20
801.007815
30
15.000000
0
VERTEX
8
TRAV_149
10
1725.000000
20
805.179823
30
15.324274
0
SEQEND
0
POLYLINE
8
TRAV_149
62
0
66
1
70
9
0
VERTEX
8
TRAV_149
10
1645.000000
20
827.597625
30
37.311499
0
VERTEX
8
TRAV_149
10
1645.000000
20
826.553816
30
33.259184
0
VERTEX
8
TRAV_149
10
1725.000000
20
826.553816
30
33.259184
0
VERTEX
8
TRAV_149
10
1725.000000
20
827.597625
30
37.311499
0
SEQEND
0
POLYLINE
8
TRAV_149
62
0
66
1
70
9
0
VERTEX
8
TRAV_149
10
1645.000000
20
143.117631
30
0.000000
0
VERTEX
8
TRAV_149
10
1645.000000
20
806.882369
30
-0.000000
0
VERTEX
8
TRAV_149
10
1725.000000
20
806.882369
30
-0.000000
0
VERTEX
8
TRAV_149
10
1725.000000
20
143.117631
30
0.000000
0
SEQEND
0
POLYLINE
8
TRAV_149
62
0
66
1
70
9
0
VERTEX
8
TRAV_149
10
1645.000000
20
839.997266
30
23.668467
0
VERTEX
8
TRAV_149
10
1645.000000
20
841.350466
30
28.921324
0
VERTEX
8
TRAV_149
10
1725.000000
20
841.350466
30
28.921324
0
VERTEX
8
TRAV_149
10
1725.000000
20
839.997266
30
23.668467
0
SEQEND
0
POLYLINE
8
TRAV_149
62
0
66
1
70
9
0
VERTEX
8
TRAV_149
10
1645.000000
20
837.848668
30
18.687785
0
VERTEX
8
TRAV_149
10
1645.000000
20
839.997266
30
23.668467
0
VERTEX
8
TRAV_149
10
1725.000000
20
839.997266
30
23.668467
0
VERTEX
8
TRAV_149
10
1725.000000
20
837.848668
30
18.687785
0
SEQEND
0
POLYLINE
8
TRAV_149
62
0
66
1
70
9
0
VERTEX
8
TRAV_149
10
1645.000000
20
834.956281
30
14.098912
0
VERTEX
8
TRAV_149
10
1645.000000
20
837.848668
30
18.687785
0
VERTEX
8
TRAV_149
10
1725.000000
20
837.848668
30
18.687785
0
VERTEX
8
TRAV_149
10
1725.000000
20
834.956281
30
14.098912
0
SEQEND
0
POLYLINE
8
TRAV_149
62
0
66
1
70
9
0
VERTEX
8
TRAV_149
10
1645.000000
20
831.389578
30
10.012068
0
VERTEX
8
TRAV_149
10
1645.000000
20
834.956281
30
14.098912
0
VERTEX
8
TRAV_149
10
1725.000000
20
834.956281
30
14.098912
0
VERTEX
8
TRAV_149
10
1725.000000
20
831.389578
30
10.012068
0
SEQEND
0
POLYLINE
8
TRAV_149
62
0
66
1
70
9
0
VERTEX
8
TRAV_149
10
1645.000000
20
827.234228
30
6.525418
0
VERTEX
8
TRAV_149
10
1645.000000
20
831.389578
30
10.012068
0
VERTEX
8
TRAV_149
10
1725.000000
20
831.389578
30
10.012068
0
VERTEX
8
TRAV_149
10
1725.000000
20
827.234228
30
6.525418
0
SEQEND
0
POLYLINE
8
TRAV_149
62
0
66
1
70
9
0
VERTEX
8
TRAV_149
10
1645.000000
20
822.590041
30
3.722707
0
VERTEX
8
TRAV_149
10
1645.000000
20
827.234228
30
6.525418
0
VERTEX
8
TRAV_149
10
1725.000000
20
827.234228
30
6.525418
0
VERTEX
8
TRAV_149
10
1725.000000
20
822.590041
30
3.722707
0
SEQEND
0
POLYLINE
8
TRAV_149
62
0
66
1
70
9
0
VERTEX
8
TRAV_149
10
1645.000000
20
817.568566
30
1.671256
0
VERTEX
8
TRAV_149
10
1645.000000
20
822.590041
30
3.722707
0
VERTEX
8
TRAV_149
10
1725.000000
20
822.590041
30
3.722707
0
VERTEX
8
TRAV_149
10
1725.000000
20
817.568566
30
1.671256
0
SEQEND
0
POLYLINE
8
TRAV_149
62
0
66
1
70
9
0
VERTEX
8
TRAV_149
10
1645.000000
20
812.290417
30
0.420338
0
VERTEX
8
TRAV_149
10
1645.000000
20
817.568566
30
1.671256
0
VERTEX
8
TRAV_149
10
1725.000000
20
817.568566
30
1.671256
0
VERTEX
8
TRAV_149
10
1725.000000
20
812.290417
30
0.420338
0
SEQEND
0
POLYLINE
8
TRAV_149
62
0
66
1
70
9
0
VERTEX
8
TRAV_149
10
1645.000000
20
806.882369
30
-0.000000
0
VERTEX
8
TRAV_149
10
1645.000000
20
812.290417
30
0.420338
0
VERTEX
8
TRAV_149
10
1725.000000
20
812.290417
30
0.420338
0
VERTEX
8
TRAV_149
10
1725.000000
20
806.882369
30
-0.000000
0
SEQEND
0
POLYLINE
8
TRAV_149
62
0
66
1
70
9
0
VERTEX
8
TRAV_149
10
1645.000000
20
137.709583
30
0.420338
0
VERTEX
8
TRAV_149
10
1645.000000
20
143.117631
30
0.000000
0
VERTEX
8
TRAV_149
10
1725.000000
20
143.117631
30
0.000000
0
VERTEX
8
TRAV_149
10
1725.000000
20
137.709583
30
0.420338
0
SEQEND
0
POLYLINE
8
TRAV_149
62
0
66
1
70
9
0
VERTEX
8
TRAV_149
10
1645.000000
20
132.431434
30
1.671256
0
VERTEX
8
TRAV_149
10
1645.000000
20
137.709583
30
0.420338
0
VERTEX
8
TRAV_149
10
1725.000000
20
137.709583
30
0.420338
0
VERTEX
8
TRAV_149
10
1725.000000
20
132.431434
30
1.671256
0
SEQEND
0
POLYLINE
8
TRAV_149
62
0
66
1
70
9
0
VERTEX
8
TRAV_149
10
1645.000000
20
127.409959
30
3.722707
0
VERTEX
8
TRAV_149
10
1645.000000
20
132.431434
30
1.671256
0
VERTEX
8
TRAV_149
10
1725.000000
20
132.431434
30
1.671256
0
VERTEX
8
TRAV_149
10
1725.000000
20
127.409959
30
3.722707
0
SEQEND
0
POLYLINE
8
TRAV_149
62
0
66
1
70
9
0
VERTEX
8
TRAV_149
10
1645.000000
20
122.765772
30
6.525418
0
VERTEX
8
TRAV_149
10
1645.000000
20
127.409959
30
3.722707
0
VERTEX
8
TRAV_149
10
1725.000000
20
127.409959
30
3.722707
0
VERTEX
8
TRAV_149
10
1725.000000
20
122.765772
30
6.525418
0
SEQEND
0
POLYLINE
8
TRAV_149
62
0
66
1
70
9
0
VERTEX
8
TRAV_149
10
1645.000000
20
118.610422
30
10.012068
0
VERTEX
8
TRAV_149
10
1645.000000
20
122.765772
30
6.525418
0
VERTEX
8
TRAV_149
10
1725.000000
20
122.765772
30
6.525418
0
VERTEX
8
TRAV_149
10
1725.000000
20
118.610422
30
10.012068
0
SEQEND
0
POLYLINE
8
TRAV_149
62
0
66
1
70
9
0
VERTEX
8
TRAV_149
10
1645.000000
20
115.043719
30
14.098912
0
VERTEX
8
TRAV_149
10
1645.000000
20
118.610422
30
10.012068
0
VERTEX
8
TRAV_149
10
1725.000000
20
118.610422
30
10.012068
0
VERTEX
8
TRAV_149
10
1725.000000
20
115.043719
30
14.098912
0
SEQEND
0
POLYLINE
8
TRAV_149
62
0
66
1
70
9
0
VERTEX
8
TRAV_149
10
1645.000000
20
112.151332
30
18.687785
0
VERTEX
8
TRAV_149
10
1645.000000
20
115.043719
30
14.098912
0
VERTEX
8
TRAV_149
10
1725.000000
20
115.043719
30
14.098912
0
VERTEX
8
TRAV_149
10
1725.000000
20
112.151332
30
18.687785
0
SEQEND
0
POLYLINE
8
TRAV_149
62
0
66
1
70
9
0
VERTEX
8
TRAV_149
10
1645.000000
20
110.002734
30
23.668467
0
VERTEX
8
TRAV_149
10
1645.000000
20
112.151332
30
18.687785
0
VERTEX
8
TRAV_149
10
1725.000000
20
112.151332
30
18.687785
0
VERTEX
8
TRAV_149
10
1725.000000
20
110.002734
30
23.668467
0
SEQEND
0
POLYLINE
8
TRAV_149
62
0
66
1
70
9
0
VERTEX
8
TRAV_149
10
1645.000000
20
108.649534
30
28.921324
0
VERTEX
8
TRAV_149
10
1645.000000
20
110.002734
30
23.668467
0
VERTEX
8
TRAV_149
10
1725.000000
20
110.002734
30
23.668467
0
VERTEX
8
TRAV_149
10
1725.000000
20
108.649534
30
28.921324
0
SEQEND
0
POLYLINE
8
TRAV_149
62
0
66
1
70
9
0
VERTEX
8
TRAV_149
10
1645.000000
20
935.000000
30
750.000000
0
VERTEX
8
TRAV_149
10
1725.000000
20
935.000000
30
750.000000
0
VERTEX
8
TRAV_149
10
1725.000000
20
950.000000
30
750.000000
0
VERTEX
8
TRAV_149
10
1645.000000
20
950.000000
30
750.000000
0
SEQEND
0
POLYLINE
8
TRAV_149
62
0
66
1
70
9
0
VERTEX
8
TRAV_149
10
1645.000000
20
0.000000
30
750.000000
0
VERTEX
8
TRAV_149
10
1725.000000
20
0.000000
30
750.000000
0
VERTEX
8
TRAV_149
10
1725.000000
20
15.000000
30
750.000000
0
VERTEX
8
TRAV_149
10
1645.000000
20
15.000000
30
750.000000
0
SEQEND
0
POLYLINE
8
TRAV_149
62
0
66
1
70
9
0
VERTEX
8
TRAV_149
10
1645.000000
20
809.251617
30
16.289307
0
VERTEX
8
TRAV_149
10
1645.000000
20
805.179823
30
15.324274
0
VERTEX
8
TRAV_149
10
1725.000000
20
805.179823
30
15.324274
0
SEQEND
0
POLYLINE
8
TRAV_149
62
0
66
1
70
9
0
VERTEX
8
TRAV_149
10
1725.000000
20
809.251617
30
16.289307
0
VERTEX
8
TRAV_149
10
1645.000000
20
809.251617
30
16.289307
0
VERTEX
8
TRAV_149
10
1725.000000
20
805.179823
30
15.324274
0
SEQEND
0
POLYLINE
8
TRAV_149
62
0
66
1
70
9
0
VERTEX
8
TRAV_149
10
1645.000000
20
813.125393
30
17.871919
0
VERTEX
8
TRAV_149
10
1645.000000
20
809.251617
30
16.289307
0
VERTEX
8
TRAV_149
10
1725.000000
20
809.251617
30
16.289307
0
SEQEND
0
POLYLINE
8
TRAV_149
62
0
66
1
70
9
0
VERTEX
8
TRAV_149
10
1725.000000
20
813.125393
30
17.871919
0
VERTEX
8
TRAV_149
10
1645.000000
20
813.125393
30
17.871919
0
VERTEX
8
TRAV_149
10
1725.000000
20
809.251617
30
16.289307
0
SEQEND
0
POLYLINE
8
TRAV_149
62
0
66
1
70
9
0
VERTEX
8
TRAV_149
10
1645.000000
20
816.708101
30
20.034094
0
VERTEX
8
TRAV_149
10
1645.000000
20
813.125393
30
17.871919
0
VERTEX
8
TRAV_149
10
1725.000000
20
813.125393
30
17.871919
0
SEQEND
0
POLYLINE
8
TRAV_149
62
0
66
1
70
9
0
VERTEX
8
TRAV_149
10
1725.000000
20
816.708101
30
20.034094
0
VERTEX
8
TRAV_149
10
1645.000000
20
816.708101
30
20.034094
0
VERTEX
8
TRAV_149
10
1725.000000
20
813.125393
30
17.871919
0
SEQEND
0
POLYLINE
8
TRAV_149
62
0
66
1
70
9
0
VERTEX
8
TRAV_149
10
1645.000000
20
819.913684
30
22.723897
0
VERTEX
8
TRAV_149
10
1645.000000
20
816.708101
30
20.034094
0
VERTEX
8
TRAV_149
10
1725.000000
20
816.708101
30
20.034094
0
SEQEND
0
POLYLINE
8
TRAV_149
62
0
66
1
70
9
0
VERTEX
8
TRAV_149
10
1725.000000
20
819.913684
30
22.723897
0
VERTEX
8
TRAV_149
10
1645.000000
20
819.913684
30
22.723897
0
VERTEX
8
TRAV_149
10
1725.000000
20
816.708101
30
20.034094
0
SEQEND
0
POLYLINE
8
TRAV_149
62
0
66
1
70
9
0
VERTEX
8
TRAV_149
10
1645.000000
20
822.665142
30
25.876718
0
VERTEX
8
TRAV_149
10
1645.000000
20
819.913684
30
22.723897
0
VERTEX
8
TRAV_149
10
1725.000000
20
819.913684
30
22.723897
0
SEQEND
0
POLYLINE
8
TRAV_149
62
0
66
1
70
9
0
VERTEX
8
TRAV_149
10
1725.000000
20
822.665142
30
25.876718
0
VERTEX
8
TRAV_149
10
1645.000000
20
822.665142
30
25.876718
0
VERTEX
8
TRAV_149
10
1725.000000
20
819.913684
30
22.723897
0
SEQEND
0
POLYLINE
8
TRAV_149
62
0
66
1
70
9
0
VERTEX
8
TRAV_149
10
1645.000000
20
824.896384
30
29.416825
0
VERTEX
8
TRAV_149
10
1645.000000
20
822.665142
30
25.876718
0
VERTEX
8
TRAV_149
10
1725.000000
20
822.665142
30
25.876718
0
SEQEND
0
POLYLINE
8
TRAV_149
62
0
66
1
70
9
0
VERTEX
8
TRAV_149
10
1725.000000
20
824.896384
30
29.416825
0
VERTEX
8
TRAV_149
10
1645.000000
20
824.896384
30
29.416825
0
VERTEX
8
TRAV_149
10
1725.000000
20
822.665142
30
25.876718
0
SEQEND
0
POLYLINE
8
TRAV_149
62
0
66
1
70
9
0
VERTEX
8
TRAV_149
10
1645.000000
20
826.553816
30
33.259184
0
VERTEX
8
TRAV_149
10
1645.000000
20
824.896384
30
29.416825
0
VERTEX
8
TRAV_149
10
1725.000000
20
824.896384
30
29.416825
0
SEQEND
0
POLYLINE
8
TRAV_149
62
0
66
1
70
9
0
VERTEX
8
TRAV_149
10
1725.000000
20
826.553816
30
33.259184
0
VERTEX
8
TRAV_149
10
1645.000000
20
826.553816
30
33.259184
0
VERTEX
8
TRAV_149
10
1725.000000
20
824.896384
30
29.416825
0
SEQEND
0
POLYLINE
8
TRAV_149
62
0
66
1
70
9
0
VERTEX
8
TRAV_149
10
1725.000000
20
140.748383
30
16.289307
0
VERTEX
8
TRAV_149
10
1725.000000
20
144.820177
30
15.324274
0
VERTEX
8
TRAV_149
10
1645.000000
20
144.820177
30
15.324274
0
SEQEND
0
POLYLINE
8
TRAV_149
62
0
66
1
70
9
0
VERTEX
8
TRAV_149
10
1645.000000
20
140.748383
30
16.289307
0
VERTEX
8
TRAV_149
10
1725.000000
20
140.748383
30
16.289307
0
VERTEX
8
TRAV_149
10
1645.000000
20
144.820177
30
15.324274
0
SEQEND
0
POLYLINE
8
TRAV_149
62
0
66
1
70
9
0
VERTEX
8
TRAV_149
10
1725.000000
20
136.874607
30
17.871919
0
VERTEX
8
TRAV_149
10
1725.000000
20
140.748383
30
16.289307
0
VERTEX
8
TRAV_149
10
1645.000000
20
140.748383
30
16.289307
0
SEQEND
0
POLYLINE
8
TRAV_149
62
0
66
1
70
9
0
VERTEX
8
TRAV_149
10
1645.000000
20
136.874607
30
17.871919
0
VERTEX
8
TRAV_149
10
1725.000000
20
136.874607
30
17.871919
0
VERTEX
8
TRAV_149
10
1645.000000
20
140.748383
30
16.289307
0
SEQEND
0
POLYLINE
8
TRAV_149
62
0
66
1
70
9
0
VERTEX
8
TRAV_149
10
1725.000000
20
133.291899
30
20.034094
0
VERTEX
8
TRAV_149
10
1725.000000
20
136.874607
30
17.871919
0
VERTEX
8
TRAV_149
10
1645.000000
20
136.874607
30
17.871919
0
SEQEND
0
POLYLINE
8
TRAV_149
62
0
66
1
70
9
0
VERTEX
8
TRAV_149
10
1645.000000
20
133.291899
30
20.034094
0
VERTEX
8
TRAV_149
10
1725.000000
20
133.291899
30
20.034094
0
VERTEX
8
TRAV_149
10
1645.000000
20
136.874607
30
17.871919
0
SEQEND
0
POLYLINE
8
TRAV_149
62
0
66
1
70
9
0
VERTEX
8
TRAV_149
10
1725.000000
20
130.086316
30
22.723897
0
VERTEX
8
TRAV_149
10
1725.000000
20
133.291899
30
20.034094
0
VERTEX
8
TRAV_149
10
1645.000000
20
133.291899
30
20.034094
0
SEQEND
0
POLYLINE
8
TRAV_149
62
0
66
1
70
9
0
VERTEX
8
TRAV_149
10
1645.000000
20
130.086316
30
22.723897
0
VERTEX
8
TRAV_149
10
1725.000000
20
130.086316
30
22.723897
0
VERTEX
8
TRAV_149
10
1645.000000
20
133.291899
30
20.034094
0
SEQEND
0
POLYLINE
8
TRAV_149
62
0
66
1
70
9
0
VERTEX
8
TRAV_149
10
1725.000000
20
127.334858
30
25.876718
0
VERTEX
8
TRAV_149
10
1725.000000
20
130.086316
30
22.723897
0
VERTEX
8
TRAV_149
10
1645.000000
20
130.086316
30
22.723897
0
SEQEND
0
POLYLINE
8
TRAV_149
62
0
66
1
70
9
0
VERTEX
8
TRAV_149
10
1645.000000
20
127.334858
30
25.876718
0
VERTEX
8
TRAV_149
10
1725.000000
20
127.334858
30
25.876718
0
VERTEX
8
TRAV_149
10
1645.000000
20
130.086316
30
22.723897
0
SEQEND
0
POLYLINE
8
TRAV_149
62
0
66
1
70
9
0
VERTEX
8
TRAV_149
10
1725.000000
20
125.103616
30
29.416825
0
VERTEX
8
TRAV_149
10
1725.000000
20
127.334858
30
25.876718
0
VERTEX
8
TRAV_149
10
1645.000000
20
127.334858
30
25.876718
0
SEQEND
0
POLYLINE
8
TRAV_149
62
0
66
1
70
9
0
VERTEX
8
TRAV_149
10
1645.000000
20
125.103616
30
29.416825
0
VERTEX
8
TRAV_149
10
1725.000000
20
125.103616
30
29.416825
0
VERTEX
8
TRAV_149
10
1645.000000
20
127.334858
30
25.876718
0
SEQEND
0
POLYLINE
8
TRAV_149
62
0
66
1
70
9
0
VERTEX
8
TRAV_149
10
1725.000000
20
123.446184
30
33.259184
0
VERTEX
8
TRAV_149
10
1725.000000
20
125.103616
30
29.416825
0
VERTEX
8
TRAV_149
10
1645.000000
20
125.103616
30
29.416825
0
SEQEND
0
POLYLINE
8
TRAV_149
62
0
66
1
70
9
0
VERTEX
8
TRAV_149
10
1645.000000
20
123.446184
30
33.259184
0
VERTEX
8
TRAV_149
10
1725.000000
20
123.446184
30
33.259184
0
VERTEX
8
TRAV_149
10
1645.000000
20
125.103616
30
29.416825
0
SEQEND
0
POLYLINE
8
TRAV_149
62
0
66
1
70
9
0
VERTEX
8
TRAV_149
10
1645.000000
20
934.705613
30
644.889673
0
VERTEX
8
TRAV_149
10
1645.000000
20
934.615675
30
644.275673
0
VERTEX
8
TRAV_149
10
1725.000000
20
934.615675
30
644.275673
0
SEQEND
0
POLYLINE
8
TRAV_149
62
0
66
1
70
9
0
VERTEX
8
TRAV_149
10
1725.000000
20
934.705613
30
644.889673
0
VERTEX
8
TRAV_149
10
1645.000000
20
934.705613
30
644.889673
0
VERTEX
8
TRAV_149
10
1725.000000
20
934.615675
30
644.275673
0
SEQEND
0
POLYLINE
8
TRAV_149
62
0
66
1
70
9
0
VERTEX
8
TRAV_149
10
1645.000000
20
934.783627
30
645.505301
0
VERTEX
8
TRAV_149
10
1645.000000
20
934.705613
30
644.889673
0
VERTEX
8
TRAV_149
10
1725.000000
20
934.705613
30
644.889673
0
SEQEND
0
POLYLINE
8
TRAV_149
62
0
66
1
70
9
0
VERTEX
8
TRAV_149
10
1725.000000
20
934.783627
30
645.505301
0
VERTEX
8
TRAV_149
10
1645.000000
20
934.783627
30
645.505301
0
VERTEX
8
TRAV_149
10
1725.000000
20
934.705613
30
644.889673
0
SEQEND
0
POLYLINE
8
TRAV_149
62
0
66
1
70
9
0
VERTEX
8
TRAV_149
10
1645.000000
20
934.849689
30
646.122326
0
VERTEX
8
TRAV_149
10
1645.000000
20
934.783627
30
645.505301
0
VERTEX
8
TRAV_149
10
1725.000000
20
934.783627
30
645.505301
0
SEQEND
0
POLYLINE
8
TRAV_149
62
0
66
1
70
9
0
VERTEX
8
TRAV_149
10
1725.000000
20
934.849689
30
646.122326
0
VERTEX
8
TRAV_149
10
1645.000000
20
934.849689
30
646.122326
0
VERTEX
8
TRAV_149
10
1725.000000
20
934.783627
30
645.505301
0
SEQEND
0
POLYLINE
8
TRAV_149
62
0
66
1
70
9
0
VERTEX
8
TRAV_149
10
1645.000000
20
934.903774
30
646.740517
0
VERTEX
8
TRAV_149
10
1645.000000
20
934.849689
30
646.122326
0
VERTEX
8
TRAV_149
10
1725.000000
20
934.849689
30
646.122326
0
SEQEND
0
POLYLINE
8
TRAV_149
62
0
66
1
70
9
0
VERTEX
8
TRAV_149
10
1725.000000
20
934.903774
30
646.740517
0
VERTEX
8
TRAV_149
10
1645.000000
20
934.903774
30
646.740517
0
VERTEX
8
TRAV_149
10
1725.000000
20
934.849689
30
646.122326
0
SEQEND
0
POLYLINE
8
TRAV_149
62
0
66
1
70
9
0
VERTEX
8
TRAV_149
10
1645.000000
20
934.945861
30
647.359640
0
VERTEX
8
TRAV_149
10
1645.000000
20
934.903774
30
646.740517
0
VERTEX
8
TRAV_149
10
1725.000000
20
934.903774
30
646.740517
0
SEQEND
0
POLYLINE
8
TRAV_149
62
0
66
1
70
9
0
VERTEX
8
TRAV_149
10
1725.000000
20
934.945861
30
647.359640
0
VERTEX
8
TRAV_149
10
1645.000000
20
934.945861
30
647.359640
0
VERTEX
8
TRAV_149
10
1725.000000
20
934.903774
30
646.740517
0
SEQEND
0
POLYLINE
8
TRAV_149
62
0
66
1
70
9
0
VERTEX
8
TRAV_149
10
1645.000000
20
934.975934
30
647.979462
0
VERTEX
8
TRAV_149
10
1645.000000
20
934.945861
30
647.359640
0
VERTEX
8
TRAV_149
10
1725.000000
20
934.945861
30
647.359640
0
SEQEND
0
POLYLINE
8
TRAV_149
62
0
66
1
70
9
0
VERTEX
8
TRAV_149
10
1725.000000
20
934.975934
30
647.979462
0
VERTEX
8
TRAV_149
10
1645.000000
20
934.975934
30
647.979462
0
VERTEX
8
TRAV_149
10
1725.000000
20
934.945861
30
647.359640
0
SEQEND
0
POLYLINE
8
TRAV_149
62
0
66
1
70
9
0
VERTEX
8
TRAV_149
10
1645.000000
20
934.993983
30
648.599752
0
VERTEX
8
TRAV_149
10
1645.000000
20
934.975934
30
647.979462
0
VERTEX
8
TRAV_149
10
1725.000000
20
934.975934
30
647.979462
0
SEQEND
0
POLYLINE
8
TRAV_149
62
0
66
1
70
9
0
VERTEX
8
TRAV_149
10
1725.000000
20
934.993983
30
648.599752
0
VERTEX
8
TRAV_149
10
1645.000000
20
934.993983
30
648.599752
0
VERTEX
8
TRAV_149
10
1725.000000
20
934.975934
30
647.979462
0
SEQEND
0
POLYLINE
8
TRAV_149
62
0
66
1
70
9
0
VERTEX
8
TRAV_149
10
1725.000000
20
15.294387
30
644.889673
0
VERTEX
8
TRAV_149
10
1725.000000
20
15.384325
30
644.275673
0
VERTEX
8
TRAV_149
10
1645.000000
20
15.384325
30
644.275673
0
SEQEND
0
POLYLINE
8
TRAV_149
62
0
66
1
70
9
0
VERTEX
8
TRAV_149
10
1645.000000
20
15.294387
30
644.889673
0
VERTEX
8
TRAV_149
10
1725.000000
20
15.294387
30
644.889673
0
VERTEX
8
TRAV_149
10
1645.000000
20
15.384325
30
644.275673
0
SEQEND
0
POLYLINE
8
TRAV_149
62
0
66
1
70
9
0
VERTEX
8
TRAV_149
10
1725.000000
20
15.216373
30
645.505301
0
VERTEX
8
TRAV_149
10
1725.000000
20
15.294387
30
644.889673
0
VERTEX
8
TRAV_149
10
1645.000000
20
15.294387
30
644.889673
0
SEQEND
0
POLYLINE
8
TRAV_149
62
0
66
1
70
9
0
VERTEX
8
TRAV_149
10
1645.000000
20
15.216373
30
645.505301
0
VERTEX
8
TRAV_149
10
1725.000000
20
15.216373
30
645.505301
0
VERTEX
8
TRAV_149
10
1645.000000
20
15.294387
30
644.889673
0
SEQEND
0
POLYLINE
8
TRAV_149
62
0
66
1
70
9
0
VERTEX
8
TRAV_149
10
1725.000000
20
15.150311
30
646.122326
0
VERTEX
8
TRAV_149
10
1725.000000
20
15.216373
30
645.505301
0
VERTEX
8
TRAV_149
10
1645.000000
20
15.216373
30
645.505301
0
SEQEND
0
POLYLINE
8
TRAV_149
62
0
66
1
70
9
0
VERTEX
8
TRAV_149
10
1645.000000
20
15.150311
30
646.122326
0
VERTEX
8
TRAV_149
10
1725.000000
20
15.150311
30
646.122326
0
VERTEX
8
TRAV_149
10
1645.000000
20
15.216373
30
645.505301
0
SEQEND
0
POLYLINE
8
TRAV_149
62
0
66
1
70
9
0
VERTEX
8
TRAV_149
10
1725.000000
20
15.096226
30
646.740517
0
VERTEX
8
TRAV_149
10
1725.000000
20
15.150311
30
646.122326
0
VERTEX
8
TRAV_149
10
1645.000000
20
15.150311
30
646.122326
0
SEQEND
0
POLYLINE
8
TRAV_149
62
0
66
1
70
9
0
VERTEX
8
TRAV_149
10
1645.000000
20
15.096226
30
646.740517
0
VERTEX
8
TRAV_149
10
1725.000000
20
15.096226
30
646.740517
0
VERTEX
8
TRAV_149
10
1645.000000
20
15.150311
30
646.122326
0
SEQEND
0
POLYLINE
8
TRAV_149
62
0
66
1
70
9
0
VERTEX
8
TRAV_149
10
1725.000000
20
15.054139
30
647.359640
0
VERTEX
8
TRAV_149
10
1725.000000
20
15.096226
30
646.740517
0
VERTEX
8
TRAV_149
10
1645.000000
20
15.096226
30
646.740517
0
SEQEND
0
POLYLINE
8
TRAV_149
62
0
66
1
70
9
0
VERTEX
8
TRAV_149
10
1645.000000
20
15.054139
30
647.359640
0
VERTEX
8
TRAV_149
10
1725.000000
20
15.054139
30
647.359640
0
VERTEX
8
TRAV_149
10
1645.000000
20
15.096226
30
646.740517
0
SEQEND
0
POLYLINE
8
TRAV_149
62
0
66
1
70
9
0
VERTEX
8
TRAV_149
10
1725.000000
20
15.024066
30
647.979462
0
VERTEX
8
TRAV_149
10
1725.000000
20
15.054139
30
647.359640
0
VERTEX
8
TRAV_149
10
1645.000000
20
15.054139
30
647.359640
0
SEQEND
0
POLYLINE
8
TRAV_149
62
0
66
1
70
9
0
VERTEX
8
TRAV_149
10
1645.000000
20
15.024066
30
647.979462
0
VERTEX
8
TRAV_149
10
1725.000000
20
15.024066
30
647.979462
0
VERTEX
8
TRAV_149
10
1645.000000
20
15.054139
30
647.359640
0
SEQEND
0
POLYLINE
8
TRAV_149
62
0
66
1
70
9
0
VERTEX
8
TRAV_149
10
1725.000000
20
15.006017
30
648.599752
0
VERTEX
8
TRAV_149
10
1725.000000
20
15.024066
30
647.979462
0
VERTEX
8
TRAV_149
10
1645.000000
20
15.024066
30
647.979462
0
SEQEND
0
POLYLINE
8
TRAV_149
62
0
66
1
70
9
0
VERTEX
8
TRAV_149
10
1645.000000
20
15.006017
30
648.599752
0
VERTEX
8
TRAV_149
10
1725.000000
20
15.006017
30
648.599752
0
VERTEX
8
TRAV_149
10
1645.000000
20
15.024066
30
647.979462
0
SEQEND
0
POLYLINE
8
TRAV_149
62
0
66
1
70
9
0
VERTEX
8
TRAV_149
10
155.000000
20
15.486152
30
643.663532
0
VERTEX
8
TRAV_149
10
155.000000
20
122.402375
30
37.311499
0
VERTEX
8
TRAV_149
10
75.000000
20
122.402375
30
37.311499
0
VERTEX
8
TRAV_149
10
75.000000
20
15.486152
30
643.663532
0
SEQEND
0
POLYLINE
8
TRAV_149
62
0
66
1
70
9
0
VERTEX
8
TRAV_149
10
75.000000
20
15.000000
30
649.220274
0
VERTEX
8
TRAV_149
10
75.000000
20
15.000000
30
750.000000
0
VERTEX
8
TRAV_149
10
155.000000
20
15.000000
30
750.000000
0
VERTEX
8
TRAV_149
10
155.000000
20
15.000000
30
649.220274
0
SEQEND
0
POLYLINE
8
TRAV_149
62
0
66
1
70
9
0
VERTEX
8
TRAV_149
10
155.000000
20
841.350466
30
28.921324
0
VERTEX
8
TRAV_149
10
155.000000
20
949.392111
30
641.553067
0
VERTEX
8
TRAV_149
10
155.000000
20
949.519436
30
642.318365
0
VERTEX
8
TRAV_149
10
155.000000
20
949.631895
30
643.085988
0
VERTEX
8
TRAV_149
10
155.000000
20
949.729445
30
643.855648
0
VERTEX
8
TRAV_149
10
155.000000
20
949.812050
30
644.627055
0
VERTEX
8
TRAV_149
10
155.000000
20
949.879678
30
645.399919
0
VERTEX
8
TRAV_149
10
155.000000
20
949.932304
30
646.173950
0
VERTEX
8
TRAV_149
10
155.000000
20
949.969908
30
646.948855
0
VERTEX
8
TRAV_149
10
155.000000
20
949.992476
30
647.724344
0
VERTEX
8
TRAV_149
10
155.000000
20
950.000000
30
648.500125
0
VERTEX
8
TRAV_149
10
155.000000
20
950.000000
30
750.000000
0
VERTEX
8
TRAV_149
10
155.000000
20
935.000000
30
750.000000
0
VERTEX
8
TRAV_149
10
155.000000
20
935.000000
30
649.220274
0
VERTEX
8
TRAV_149
10
155.000000
20
934.993983
30
648.599752
0
VERTEX
8
TRAV_149
10
155.000000
20
934.975934
30
647.979462
0
VERTEX
8
TRAV_149
10
155.000000
20
934.945861
30
647.359640
0
VERTEX
8
TRAV_149
10
155.000000
20
934.903774
30
646.740517
0
VERTEX
8
TRAV_149
10
155.000000
20
934.849689
30
646.122326
0
VERTEX
8
TRAV_149
10
155.000000
20
934.783627
30
645.505301
0
VERTEX
8
TRAV_149
10
155.000000
20
934.705613
30
644.889673
0
VERTEX
8
TRAV_149
10
155.000000
20
934.615675
30
644.275673
0
VERTEX
8
TRAV_149
10
155.000000
20
934.513848
30
643.663532
0
VERTEX
8
TRAV_149
10
155.000000
20
827.597625
30
37.311499
0
VERTEX
8
TRAV_149
10
155.000000
20
826.553816
30
33.259184
0
VERTEX
8
TRAV_149
10
155.000000
20
824.896384
30
29.416825
0
VERTEX
8
TRAV_149
10
155.000000
20
822.665142
30
25.876718
0
VERTEX
8
TRAV_149
10
155.000000
20
819.913684
30
22.723897
0
VERTEX
8
TRAV_149
10
155.000000
20
816.708101
30
20.034094
0
VERTEX
8
TRAV_149
10
155.000000
20
813.125393
30
17.871919
0
VERTEX
8
TRAV_149
10
155.000000
20
809.251617
30
16.289307
0
VERTEX
8
TRAV_149
10
155.000000
20
805.179823
30
15.324274
0
VERTEX
8
TRAV_149
10
155.000000
20
801.007815
30
15.000000
0
VERTEX
8
TRAV_149
10
155.000000
20
148.992185
30
15.000000
0
VERTEX
8
TRAV_149
10
155.000000
20
144.820177
30
15.324274
0
VERTEX
8
TRAV_149
10
155.000000
20
140.748383
30
16.289307
0
VERTEX
8
TRAV_149
10
155.000000
20
136.874607
30
17.871919
0
VERTEX
8
TRAV_149
10
155.000000
20
133.291899
30
20.034094
0
VERTEX
8
TRAV_149
10
155.000000
20
130.086316
30
22.723897
0
VERTEX
8
TRAV_149
10
155.000000
20
127.334858
30
25.876718
0
VERTEX
8
TRAV_149
10
155.000000
20
125.103616
30
29.416825
0
VERTEX
8
TRAV_149
10
155.000000
20
123.446184
30
33.259184
0
VERTEX
8
TRAV_149
10
155.000000
20
122.402375
30
37.311499
0
VERTEX
8
TRAV_149
10
155.000000
20
15.486152
30
643.663532
0
VERTEX
8
TRAV_149
10
155.000000
20
15.384325
30
644.275673
0
VERTEX
8
TRAV_149
10
155.000000
20
15.294387
30
644.889673
0
VERTEX
8
TRAV_149
10
155.000000
20
15.216373
30
645.505301
0
VERTEX
8
TRAV_149
10
155.000000
20
15.150311
30
646.122326
0
VERTEX
8
TRAV_149
10
155.000000
20
15.096226
30
646.740517
0
VERTEX
8
TRAV_149
10
155.000000
20
15.054139
30
647.359640
0
VERTEX
8
TRAV_149
10
155.000000
20
15.024066
30
647.979462
0
VERTEX
8
TRAV_149
10
155.000000
20
15.006017
30
648.599752
0
VERTEX
8
TRAV_149
10
155.000000
20
15.000000
30
649.220274
0
VERTEX
8
TRAV_149
10
155.000000
20
15.000000
30
750.000000
0
VERTEX
8
TRAV_149
10
155.000000
20
0.000000
30
750.000000
0
VERTEX
8
TRAV_149
10
155.000000
20
0.000000
30
648.500125
0
VERTEX
8
TRAV_149
10
155.000000
20
0.007524
30
647.724344
0
VERTEX
8
TRAV_149
10
155.000000
20
0.030092
30
646.948855
0
VERTEX
8
TRAV_149
10
155.000000
20
0.067696
30
646.173950
0
VERTEX
8
TRAV_149
10
155.000000
20
0.120322
30
645.399919
0
VERTEX
8
TRAV_149
10
155.000000
20
0.187950
30
644.627055
0
VERTEX
8
TRAV_149
10
155.000000
20
0.270555
30
643.855648
0
VERTEX
8
TRAV_149
10
155.000000
20
0.368105
30
643.085988
0
VERTEX
8
TRAV_149
10
155.000000
20
0.480564
30
642.318365
0
VERTEX
8
TRAV_149
10
155.000000
20
0.607889
30
641.553067
0
VERTEX
8
TRAV_149
10
155.000000
20
108.649534
30
28.921324
0
VERTEX
8
TRAV_149
10
155.000000
20
110.002734
30
23.668467
0
VERTEX
8
TRAV_149
10
155.000000
20
112.151332
30
18.687785
0
VERTEX
8
TRAV_149
10
155.000000
20
115.043719
30
14.098912
0
VERTEX
8
TRAV_149
10
155.000000
20
118.610422
30
10.012068
0
VERTEX
8
TRAV_149
10
155.000000
20
122.765772
30
6.525418
0
VERTEX
8
TRAV_149
10
155.000000
20
127.409959
30
3.722707
0
VERTEX
8
TRAV_149
10
155.000000
20
132.431434
30
1.671256
0
VERTEX
8
TRAV_149
10
155.000000
20
137.709583
30
0.420338
0
VERTEX
8
TRAV_149
10
155.000000
20
143.117631
30
0.000000
0
VERTEX
8
TRAV_149
10
155.000000
20
806.882369
30
-0.000000
0
VERTEX
8
TRAV_149
10
155.000000
20
812.290417
30
0.420338
0
VERTEX
8
TRAV_149
10
155.000000
20
817.568566
30
1.671256
0
VERTEX
8
TRAV_149
10
155.000000
20
822.590041
30
3.722707
0
VERTEX
8
TRAV_149
10
155.000000
20
827.234228
30
6.525418
0
VERTEX
8
TRAV_149
10
155.000000
20
831.389578
30
10.012068
0
VERTEX
8
TRAV_149
10
155.000000
20
834.956281
30
14.098912
0
VERTEX
8
TRAV_149
10
155.000000
20
837.848668
30
18.687785
0
VERTEX
8
TRAV_149
10
155.000000
20
839.997266
30
23.668467
0
SEQEND
0
POLYLINE
8
TRAV_149
62
0
66
1
70
9
0
VERTEX
8
TRAV_149
10
75.000000
20
827.597625
30
37.311499
0
VERTEX
8
TRAV_149
10
75.000000
20
934.513848
30
643.663532
0
VERTEX
8
TRAV_149
10
75.000000
20
934.615675
30
644.275673
0
VERTEX
8
TRAV_149
10
75.000000
20
934.705613
30
644.889673
0
VERTEX
8
TRAV_149
10
75.000000
20
934.783627
30
645.505301
0
VERTEX
8
TRAV_149
10
75.000000
20
934.849689
30
646.122326
0
VERTEX
8
TRAV_149
10
75.000000
20
934.903774
30
646.740517
0
VERTEX
8
TRAV_149
10
75.000000
20
934.945861
30
647.359640
0
VERTEX
8
TRAV_149
10
75.000000
20
934.975934
30
647.979462
0
VERTEX
8
TRAV_149
10
75.000000
20
934.993983
30
648.599752
0
VERTEX
8
TRAV_149
10
75.000000
20
935.000000
30
649.220274
0
VERTEX
8
TRAV_149
10
75.000000
20
935.000000
30
750.000000
0
VERTEX
8
TRAV_149
10
75.000000
20
950.000000
30
750.000000
0
VERTEX
8
TRAV_149
10
75.000000
20
950.000000
30
648.500125
0
VERTEX
8
TRAV_149
10
75.000000
20
949.992476
30
647.724344
0
VERTEX
8
TRAV_149
10
75.000000
20
949.969908
30
646.948855
0
VERTEX
8
TRAV_149
10
75.000000
20
949.932304
30
646.173950
0
VERTEX
8
TRAV_149
10
75.000000
20
949.879678
30
645.399919
0
VERTEX
8
TRAV_149
10
75.000000
20
949.812050
30
644.627055
0
VERTEX
8
TRAV_149
10
75.000000
20
949.729445
30
643.855648
0
VERTEX
8
TRAV_149
10
75.000000
20
949.631895
30
643.085988
0
VERTEX
8
TRAV_149
10
75.000000
20
949.519436
30
642.318365
0
VERTEX
8
TRAV_149
10
75.000000
20
949.392111
30
641.553067
0
VERTEX
8
TRAV_149
10
75.000000
20
841.350466
30
28.921324
0
VERTEX
8
TRAV_149
10
75.000000
20
839.997266
30
23.668467
0
VERTEX
8
TRAV_149
10
75.000000
20
837.848668
30
18.687785
0
VERTEX
8
TRAV_149
10
75.000000
20
834.956281
30
14.098912
0
VERTEX
8
TRAV_149
10
75.000000
20
831.389578
30
10.012068
0
VERTEX
8
TRAV_149
10
75.000000
20
827.234228
30
6.525418
0
VERTEX
8
TRAV_149
10
75.000000
20
822.590041
30
3.722707
0
VERTEX
8
TRAV_149
10
75.000000
20
817.568566
30
1.671256
0
VERTEX
8
TRAV_149
10
75.000000
20
812.290417
30
0.420338
0
VERTEX
8
TRAV_149
10
75.000000
20
806.882369
30
-0.000000
0
VERTEX
8
TRAV_149
10
75.000000
20
143.117631
30
0.000000
0
VERTEX
8
TRAV_149
10
75.000000
20
137.709583
30
0.420338
0
VERTEX
8
TRAV_149
10
75.000000
20
132.431434
30
1.671256
0
VERTEX
8
TRAV_149
10
75.000000
20
127.409959
30
3.722707
0
VERTEX
8
TRAV_149
10
75.000000
20
122.765772
30
6.525418
0
VERTEX
8
TRAV_149
10
75.000000
20
118.610422
30
10.012068
0
VERTEX
8
TRAV_149
10
75.000000
20
115.043719
30
14.098912
0
VERTEX
8
TRAV_149
10
75.000000
20
112.151332
30
18.687785
0
VERTEX
8
TRAV_149
10
75.000000
20
110.002734
30
23.668467
0
VERTEX
8
TRAV_149
10
75.000000
20
108.649534
30
28.921324
0
VERTEX
8
TRAV_149
10
75.000000
20
0.607889
30
641.553067
0
VERTEX
8
TRAV_149
10
75.000000
20
0.480564
30
642.318365
0
VERTEX
8
TRAV_149
10
75.000000
20
0.368105
30
643.085988
0
VERTEX
8
TRAV_149
10
75.000000
20
0.270555
30
643.855648
0
VERTEX
8
TRAV_149
10
75.000000
20
0.187950
30
644.627055
0
VERTEX
8
TRAV_149
10
75.000000
20
0.120322
30
645.399919
0
VERTEX
8
TRAV_149
10
75.000000
20
0.067696
30
646.173950
0
VERTEX
8
TRAV_149
10
75.000000
20
0.030092
30
646.948855
0
VERTEX
8
TRAV_149
10
75.000000
20
0.007524
30
647.724344
0
VERTEX
8
TRAV_149
10
75.000000
20
0.000000
30
648.500125
0
VERTEX
8
TRAV_149
10
75.000000
20
0.000000
30
750.000000
0
VERTEX
8
TRAV_149
10
75.000000
20
15.000000
30
750.000000
0
VERTEX
8
TRAV_149
10
75.000000
20
15.000000
30
649.220274
0
VERTEX
8
TRAV_149
10
75.000000
20
15.006017
30
648.599752
0
VERTEX
8
TRAV_149
10
75.000000
20
15.024066
30
647.979462
0
VERTEX
8
TRAV_149
10
75.000000
20
15.054139
30
647.359640
0
VERTEX
8
TRAV_149
10
75.000000
20
15.096226
30
646.740517
0
VERTEX
8
TRAV_149
10
75.000000
20
15.150311
30
646.122326
0
VERTEX
8
TRAV_149
10
75.000000
20
15.216373
30
645.505301
0
VERTEX
8
TRAV_149
10
75.000000
20
15.294387
30
644.889673
0
VERTEX
8
TRAV_149
10
75.000000
20
15.384325
30
644.275673
0
VERTEX
8
TRAV_149
10
75.000000
20
15.486152
30
643.663532
0
VERTEX
8
TRAV_149
10
75.000000
20
122.402375
30
37.311499
0
VERTEX
8
TRAV_149
10
75.000000
20
123.446184
30
33.259184
0
VERTEX
8
TRAV_149
10
75.000000
20
125.103616
30
29.416825
0
VERTEX
8
TRAV_149
10
75.000000
20
127.334858
30
25.876718
0
VERTEX
8
TRAV_149
10
75.000000
20
130.086316
30
22.723897
0
VERTEX
8
TRAV_149
10
75.000000
20
133.291899
30
20.034094
0
VERTEX
8
TRAV_149
10
75.000000
20
136.874607
30
17.871919
0
VERTEX
8
TRAV_149
10
75.000000
20
140.748383
30
16.289307
0
VERTEX
8
TRAV_149
10
75.000000
20
144.820177
30
15.324274
0
VERTEX
8
TRAV_149
10
75.000000
20
148.992185
30
15.000000
0
VERTEX
8
TRAV_149
10
75.000000
20
801.007815
30
15.000000
0
VERTEX
8
TRAV_149
10
75.000000
20
805.179823
30
15.324274
0
VERTEX
8
TRAV_149
10
75.000000
20
809.251617
30
16.289307
0
VERTEX
8
TRAV_149
10
75.000000
20
813.125393
30
17.871919
0
VERTEX
8
TRAV_149
10
75.000000
20
816.708101
30
20.034094
0
VERTEX
8
TRAV_149
10
75.000000
20
819.913684
30
22.723897
0
VERTEX
8
TRAV_149
10
75.000000
20
822.665142
30
25.876718
0
VERTEX
8
TRAV_149
10
75.000000
20
824.896384
30
29.416825
0
VERTEX
8
TRAV_149
10
75.000000
20
826.553816
30
33.259184
0
SEQEND
0
POLYLINE
8
TRAV_149
62
0
66
1
70
9
0
VERTEX
8
TRAV_149
10
155.000000
20
15.384325
30
644.275673
0
VERTEX
8
TRAV_149
10
155.000000
20
15.486152
30
643.663532
0
VERTEX
8
TRAV_149
10
75.000000
20
15.486152
30
643.663532
0
VERTEX
8
TRAV_149
10
75.000000
20
15.384325
30
644.275673
0
SEQEND
0
POLYLINE
8
TRAV_149
62
0
66
1
70
9
0
VERTEX
8
TRAV_149
10
155.000000
20
15.000000
30
649.220274
0
VERTEX
8
TRAV_149
10
155.000000
20
15.006017
30
648.599752
0
VERTEX
8
TRAV_149
10
75.000000
20
15.006017
30
648.599752
0
VERTEX
8
TRAV_149
10
75.000000
20
15.000000
30
649.220274
0
SEQEND
0
POLYLINE
8
TRAV_149
62
0
66
1
70
9
0
VERTEX
8
TRAV_149
10
75.000000
20
0.607889
30
641.553067
0
VERTEX
8
TRAV_149
10
75.000000
20
108.649534
30
28.921324
0
VERTEX
8
TRAV_149
10
155.000000
20
108.649534
30
28.921324
0
VERTEX
8
TRAV_149
10
155.000000
20
0.607889
30
641.553067
0
SEQEND
0
POLYLINE
8
TRAV_149
62
0
66
1
70
9
0
VERTEX
8
TRAV_149
10
155.000000
20
0.000000
30
648.500125
0
VERTEX
8
TRAV_149
10
155.000000
20
0.000000
30
750.000000
0
VERTEX
8
TRAV_149
10
75.000000
20
0.000000
30
750.000000
0
VERTEX
8
TRAV_149
10
75.000000
20
0.000000
30
648.500125
0
SEQEND
0
POLYLINE
8
TRAV_149
62
0
66
1
70
9
0
VERTEX
8
TRAV_149
10
155.000000
20
0.007524
30
647.724344
0
VERTEX
8
TRAV_149
10
155.000000
20
0.000000
30
648.500125
0
VERTEX
8
TRAV_149
10
75.000000
20
0.000000
30
648.500125
0
VERTEX
8
TRAV_149
10
75.000000
20
0.007524
30
647.724344
0
SEQEND
0
POLYLINE
8
TRAV_149
62
0
66
1
70
9
0
VERTEX
8
TRAV_149
10
155.000000
20
0.030092
30
646.948855
0
VERTEX
8
TRAV_149
10
155.000000
20
0.007524
30
647.724344
0
VERTEX
8
TRAV_149
10
75.000000
20
0.007524
30
647.724344
0
VERTEX
8
TRAV_149
10
75.000000
20
0.030092
30
646.948855
0
SEQEND
0
POLYLINE
8
TRAV_149
62
0
66
1
70
9
0
VERTEX
8
TRAV_149
10
155.000000
20
0.067696
30
646.173950
0
VERTEX
8
TRAV_149
10
155.000000
20
0.030092
30
646.948855
0
VERTEX
8
TRAV_149
10
75.000000
20
0.030092
30
646.948855
0
VERTEX
8
TRAV_149
10
75.000000
20
0.067696
30
646.173950
0
SEQEND
0
POLYLINE
8
TRAV_149
62
0
66
1
70
9
0
VERTEX
8
TRAV_149
10
155.000000
20
0.120322
30
645.399919
0
VERTEX
8
TRAV_149
10
155.000000
20
0.067696
30
646.173950
0
VERTEX
8
TRAV_149
10
75.000000
20
0.067696
30
646.173950
0
VERTEX
8
TRAV_149
10
75.000000
20
0.120322
30
645.399919
0
SEQEND
0
POLYLINE
8
TRAV_149
62
0
66
1
70
9
0
VERTEX
8
TRAV_149
10
155.000000
20
0.187950
30
644.627055
0
VERTEX
8
TRAV_149
10
155.000000
20
0.120322
30
645.399919
0
VERTEX
8
TRAV_149
10
75.000000
20
0.120322
30
645.399919
0
VERTEX
8
TRAV_149
10
75.000000
20
0.187950
30
644.627055
0
SEQEND
0
POLYLINE
8
TRAV_149
62
0
66
1
70
9
0
VERTEX
8
TRAV_149
10
155.000000
20
0.270555
30
643.855648
0
VERTEX
8
TRAV_149
10
155.000000
20
0.187950
30
644.627055
0
VERTEX
8
TRAV_149
10
75.000000
20
0.187950
30
644.627055
0
VERTEX
8
TRAV_149
10
75.000000
20
0.270555
30
643.855648
0
SEQEND
0
POLYLINE
8
TRAV_149
62
0
66
1
70
9
0
VERTEX
8
TRAV_149
10
155.000000
20
0.368105
30
643.085988
0
VERTEX
8
TRAV_149
10
155.000000
20
0.270555
30
643.855648
0
VERTEX
8
TRAV_149
10
75.000000
20
0.270555
30
643.855648
0
VERTEX
8
TRAV_149
10
75.000000
20
0.368105
30
643.085988
0
SEQEND
0
POLYLINE
8
TRAV_149
62
0
66
1
70
9
0
VERTEX
8
TRAV_149
10
155.000000
20
0.480564
30
642.318365
0
VERTEX
8
TRAV_149
10
155.000000
20
0.368105
30
643.085988
0
VERTEX
8
TRAV_149
10
75.000000
20
0.368105
30
643.085988
0
VERTEX
8
TRAV_149
10
75.000000
20
0.480564
30
642.318365
0
SEQEND
0
POLYLINE
8
TRAV_149
62
0
66
1
70
9
0
VERTEX
8
TRAV_149
10
155.000000
20
0.607889
30
641.553067
0
VERTEX
8
TRAV_149
10
155.000000
20
0.480564
30
642.318365
0
VERTEX
8
TRAV_149
10
75.000000
20
0.480564
30
642.318365
0
VERTEX
8
TRAV_149
10
75.000000
20
0.607889
30
641.553067
0
SEQEND
0
POLYLINE
8
TRAV_149
62
0
66
1
70
9
0
VERTEX
8
TRAV_149
10
155.000000
20
827.597625
30
37.311499
0
VERTEX
8
TRAV_149
10
155.000000
20
934.513848
30
643.663532
0
VERTEX
8
TRAV_149
10
75.000000
20
934.513848
30
643.663532
0
VERTEX
8
TRAV_149
10
75.000000
20
827.597625
30
37.311499
0
SEQEND
0
POLYLINE
8
TRAV_149
62
0
66
1
70
9
0
VERTEX
8
TRAV_149
10
155.000000
20
935.000000
30
649.220274
0
VERTEX
8
TRAV_149
10
155.000000
20
935.000000
30
750.000000
0
VERTEX
8
TRAV_149
10
75.000000
20
935.000000
30
750.000000
0
VERTEX
8
TRAV_149
10
75.000000
20
935.000000
30
649.220274
0
SEQEND
0
POLYLINE
8
TRAV_149
62
0
66
1
70
9
0
VERTEX
8
TRAV_149
10
75.000000
20
934.615675
30
644.275673
0
VERTEX
8
TRAV_149
10
75.000000
20
934.513848
30
643.663532
0
VERTEX
8
TRAV_149
10
155.000000
20
934.513848
30
643.663532
0
VERTEX
8
TRAV_149
10
155.000000
20
934.615675
30
644.275673
0
SEQEND
0
POLYLINE
8
TRAV_149
62
0
66
1
70
9
0
VERTEX
8
TRAV_149
10
75.000000
20
935.000000
30
649.220274
0
VERTEX
8
TRAV_149
10
75.000000
20
934.993983
30
648.599752
0
VERTEX
8
TRAV_149
10
155.000000
20
934.993983
30
648.599752
0
VERTEX
8
TRAV_149
10
155.000000
20
935.000000
30
649.220274
0
SEQEND
0
POLYLINE
8
TRAV_149
62
0
66
1
70
9
0
VERTEX
8
TRAV_149
10
75.000000
20
841.350466
30
28.921324
0
VERTEX
8
TRAV_149
10
75.000000
20
949.392111
30
641.553067
0
VERTEX
8
TRAV_149
10
155.000000
20
949.392111
30
641.553067
0
VERTEX
8
TRAV_149
10
155.000000
20
841.350466
30
28.921324
0
SEQEND
0
POLYLINE
8
TRAV_149
62
0
66
1
70
9
0
VERTEX
8
TRAV_149
10
75.000000
20
950.000000
30
648.500125
0
VERTEX
8
TRAV_149
10
75.000000
20
950.000000
30
750.000000
0
VERTEX
8
TRAV_149
10
155.000000
20
950.000000
30
750.000000
0
VERTEX
8
TRAV_149
10
155.000000
20
950.000000
30
648.500125
0
SEQEND
0
POLYLINE
8
TRAV_149
62
0
66
1
70
9
0
VERTEX
8
TRAV_149
10
75.000000
20
949.992476
30
647.724344
0
VERTEX
8
TRAV_149
10
75.000000
20
950.000000
30
648.500125
0
VERTEX
8
TRAV_149
10
155.000000
20
950.000000
30
648.500125
0
VERTEX
8
TRAV_149
10
155.000000
20
949.992476
30
647.724344
0
SEQEND
0
POLYLINE
8
TRAV_149
62
0
66
1
70
9
0
VERTEX
8
TRAV_149
10
75.000000
20
949.969908
30
646.948855
0
VERTEX
8
TRAV_149
10
75.000000
20
949.992476
30
647.724344
0
VERTEX
8
TRAV_149
10
155.000000
20
949.992476
30
647.724344
0
VERTEX
8
TRAV_149
10
155.000000
20
949.969908
30
646.948855
0
SEQEND
0
POLYLINE
8
TRAV_149
62
0
66
1
70
9
0
VERTEX
8
TRAV_149
10
75.000000
20
949.932304
30
646.173950
0
VERTEX
8
TRAV_149
10
75.000000
20
949.969908
30
646.948855
0
VERTEX
8
TRAV_149
10
155.000000
20
949.969908
30
646.948855
0
VERTEX
8
TRAV_149
10
155.000000
20
949.932304
30
646.173950
0
SEQEND
0
POLYLINE
8
TRAV_149
62
0
66
1
70
9
0
VERTEX
8
TRAV_149
10
75.000000
20
949.879678
30
645.399919
0
VERTEX
8
TRAV_149
10
75.000000
20
949.932304
30
646.173950
0
VERTEX
8
TRAV_149
10
155.000000
20
949.932304
30
646.173950
0
VERTEX
8
TRAV_149
10
155.000000
20
949.879678
30
645.399919
0
SEQEND
0
POLYLINE
8
TRAV_149
62
0
66
1
70
9
0
VERTEX
8
TRAV_149
10
75.000000
20
949.812050
30
644.627055
0
VERTEX
8
TRAV_149
10
75.000000
20
949.879678
30
645.399919
0
VERTEX
8
TRAV_149
10
155.000000
20
949.879678
30
645.399919
0
VERTEX
8
TRAV_149
10
155.000000
20
949.812050
30
644.627055
0
SEQEND
0
POLYLINE
8
TRAV_149
62
0
66
1
70
9
0
VERTEX
8
TRAV_149
10
75.000000
20
949.729445
30
643.855648
0
VERTEX
8
TRAV_149
10
75.000000
20
949.812050
30
644.627055
0
VERTEX
8
TRAV_149
10
155.000000
20
949.812050
30
644.627055
0
VERTEX
8
TRAV_149
10
155.000000
20
949.729445
30
643.855648
0
SEQEND
0
POLYLINE
8
TRAV_149
62
0
66
1
70
9
0
VERTEX
8
TRAV_149
10
75.000000
20
949.631895
30
643.085988
0
VERTEX
8
TRAV_149
10
75.000000
20
949.729445
30
643.855648
0
VERTEX
8
TRAV_149
10
155.000000
20
949.729445
30
643.855648
0
VERTEX
8
TRAV_149
10
155.000000
20
949.631895
30
643.085988
0
SEQEND
0
POLYLINE
8
TRAV_149
62
0
66
1
70
9
0
VERTEX
8
TRAV_149
10
75.000000
20
949.519436
30
642.318365
0
VERTEX
8
TRAV_149
10
75.000000
20
949.631895
30
643.085988
0
VERTEX
8
TRAV_149
10
155.000000
20
949.631895
30
643.085988
0
VERTEX
8
TRAV_149
10
155.000000
20
949.519436
30
642.318365
0
SEQEND
0
POLYLINE
8
TRAV_149
62
0
66
1
70
9
0
VERTEX
8
TRAV_149
10
75.000000
20
949.392111
30
641.553067
0
VERTEX
8
TRAV_149
10
75.000000
20
949.519436
30
642.318365
0
VERTEX
8
TRAV_149
10
155.000000
20
949.519436
30
642.318365
0
VERTEX
8
TRAV_149
10
155.000000
20
949.392111
30
641.553067
0
SEQEND
0
POLYLINE
8
TRAV_149
62
0
66
1
70
9
0
VERTEX
8
TRAV_149
10
155.000000
20
148.992185
30
15.000000
0
VERTEX
8
TRAV_149
10
155.000000
20
801.007815
30
15.000000
0
VERTEX
8
TRAV_149
10
75.000000
20
801.007815
30
15.000000
0
VERTEX
8
TRAV_149
10
75.000000
20
148.992185
30
15.000000
0
SEQEND
0
POLYLINE
8
TRAV_149
62
0
66
1
70
9
0
VERTEX
8
TRAV_149
10
155.000000
20
144.820177
30
15.324274
0
VERTEX
8
TRAV_149
10
155.000000
20
148.992185
30
15.000000
0
VERTEX
8
TRAV_149
10
75.000000
20
148.992185
30
15.000000
0
VERTEX
8
TRAV_149
10
75.000000
20
144.820177
30
15.324274
0
SEQEND
0
POLYLINE
8
TRAV_149
62
0
66
1
70
9
0
VERTEX
8
TRAV_149
10
155.000000
20
122.402375
30
37.311499
0
VERTEX
8
TRAV_149
10
155.000000
20
123.446184
30
33.259184
0
VERTEX
8
TRAV_149
10
75.000000
20
123.446184
30
33.259184
0
VERTEX
8
TRAV_149
10
75.000000
20
122.402375
30
37.311499
0
SEQEND
0
POLYLINE
8
TRAV_149
62
0
66
1
70
9
0
VERTEX
8
TRAV_149
10
75.000000
20
805.179823
30
15.324274
0
VERTEX
8
TRAV_149
10
75.000000
20
801.007815
30
15.000000
0
VERTEX
8
TRAV_149
10
155.000000
20
801.007815
30
15.000000
0
VERTEX
8
TRAV_149
10
155.000000
20
805.179823
30
15.324274
0
SEQEND
0
POLYLINE
8
TRAV_149
62
0
66
1
70
9
0
VERTEX
8
TRAV_149
10
75.000000
20
827.597625
30
37.311499
0
VERTEX
8
TRAV_149
10
75.000000
20
826.553816
30
33.259184
0
VERTEX
8
TRAV_149
10
155.000000
20
826.553816
30
33.259184
0
VERTEX
8
TRAV_149
10
155.000000
20
827.597625
30
37.311499
0
SEQEND
0
POLYLINE
8
TRAV_149
62
0
66
1
70
9
0
VERTEX
8
TRAV_149
10
75.000000
20
143.117631
30
0.000000
0
VERTEX
8
TRAV_149
10
75.000000
20
806.882369
30
-0.000000
0
VERTEX
8
TRAV_149
10
155.000000
20
806.882369
30
-0.000000
0
VERTEX
8
TRAV_149
10
155.000000
20
143.117631
30
0.000000
0
SEQEND
0
POLYLINE
8
TRAV_149
62
0
66
1
70
9
0
VERTEX
8
TRAV_149
10
75.000000
20
839.997266
30
23.668467
0
VERTEX
8
TRAV_149
10
75.000000
20
841.350466
30
28.921324
0
VERTEX
8
TRAV_149
10
155.000000
20
841.350466
30
28.921324
0
VERTEX
8
TRAV_149
10
155.000000
20
839.997266
30
23.668467
0
SEQEND
0
POLYLINE
8
TRAV_149
62
0
66
1
70
9
0
VERTEX
8
TRAV_149
10
75.000000
20
837.848668
30
18.687785
0
VERTEX
8
TRAV_149
10
75.000000
20
839.997266
30
23.668467
0
VERTEX
8
TRAV_149
10
155.000000
20
839.997266
30
23.668467
0
VERTEX
8
TRAV_149
10
155.000000
20
837.848668
30
18.687785
0
SEQEND
0
POLYLINE
8
TRAV_149
62
0
66
1
70
9
0
VERTEX
8
TRAV_149
10
75.000000
20
834.956281
30
14.098912
0
VERTEX
8
TRAV_149
10
75.000000
20
837.848668
30
18.687785
0
VERTEX
8
TRAV_149
10
155.000000
20
837.848668
30
18.687785
0
VERTEX
8
TRAV_149
10
155.000000
20
834.956281
30
14.098912
0
SEQEND
0
POLYLINE
8
TRAV_149
62
0
66
1
70
9
0
VERTEX
8
TRAV_149
10
75.000000
20
831.389578
30
10.012068
0
VERTEX
8
TRAV_149
10
75.000000
20
834.956281
30
14.098912
0
VERTEX
8
TRAV_149
10
155.000000
20
834.956281
30
14.098912
0
VERTEX
8
TRAV_149
10
155.000000
20
831.389578
30
10.012068
0
SEQEND
0
POLYLINE
8
TRAV_149
62
0
66
1
70
9
0
VERTEX
8
TRAV_149
10
75.000000
20
827.234228
30
6.525418
0
VERTEX
8
TRAV_149
10
75.000000
20
831.389578
30
10.012068
0
VERTEX
8
TRAV_149
10
155.000000
20
831.389578
30
10.012068
0
VERTEX
8
TRAV_149
10
155.000000
20
827.234228
30
6.525418
0
SEQEND
0
POLYLINE
8
TRAV_149
62
0
66
1
70
9
0
VERTEX
8
TRAV_149
10
75.000000
20
822.590041
30
3.722707
0
VERTEX
8
TRAV_149
10
75.000000
20
827.234228
30
6.525418
0
VERTEX
8
TRAV_149
10
155.000000
20
827.234228
30
6.525418
0
VERTEX
8
TRAV_149
10
155.000000
20
822.590041
30
3.722707
0
SEQEND
0
POLYLINE
8
TRAV_149
62
0
66
1
70
9
0
VERTEX
8
TRAV_149
10
75.000000
20
817.568566
30
1.671256
0
VERTEX
8
TRAV_149
10
75.000000
20
822.590041
30
3.722707
0
VERTEX
8
TRAV_149
10
155.000000
20
822.590041
30
3.722707
0
VERTEX
8
TRAV_149
10
155.000000
20
817.568566
30
1.671256
0
SEQEND
0
POLYLINE
8
TRAV_149
62
0
66
1
70
9
0
VERTEX
8
TRAV_149
10
75.000000
20
812.290417
30
0.420338
0
VERTEX
8
TRAV_149
10
75.000000
20
817.568566
30
1.671256
0
VERTEX
8
TRAV_149
10
155.000000
20
817.568566
30
1.671256
0
VERTEX
8
TRAV_149
10
155.000000
20
812.290417
30
0.420338
0
SEQEND
0
POLYLINE
8
TRAV_149
62
0
66
1
70
9
0
VERTEX
8
TRAV_149
10
75.000000
20
806.882369
30
-0.000000
0
VERTEX
8
TRAV_149
10
75.000000
20
812.290417
30
0.420338
0
VERTEX
8
TRAV_149
10
155.000000
20
812.290417
30
0.420338
0
VERTEX
8
TRAV_149
10
155.000000
20
806.882369
30
-0.000000
0
SEQEND
0
POLYLINE
8
TRAV_149
62
0
66
1
70
9
0
VERTEX
8
TRAV_149
10
75.000000
20
137.709583
30
0.420338
0
VERTEX
8
TRAV_149
10
75.000000
20
143.117631
30
0.000000
0
VERTEX
8
TRAV_149
10
155.000000
20
143.117631
30
0.000000
0
VERTEX
8
TRAV_149
10
155.000000
20
137.709583
30
0.420338
0
SEQEND
0
POLYLINE
8
TRAV_149
62
0
66
1
70
9
0
VERTEX
8
TRAV_149
10
75.000000
20
132.431434
30
1.671256
0
VERTEX
8
TRAV_149
10
75.000000
20
137.709583
30
0.420338
0
VERTEX
8
TRAV_149
10
155.000000
20
137.709583
30
0.420338
0
VERTEX
8
TRAV_149
10
155.000000
20
132.431434
30
1.671256
0
SEQEND
0
POLYLINE
8
TRAV_149
62
0
66
1
70
9
0
VERTEX
8
TRAV_149
10
75.000000
20
127.409959
30
3.722707
0
VERTEX
8
TRAV_149
10
75.000000
20
132.431434
30
1.671256
0
VERTEX
8
TRAV_149
10
155.000000
20
132.431434
30
1.671256
0
VERTEX
8
TRAV_149
10
155.000000
20
127.409959
30
3.722707
0
SEQEND
0
POLYLINE
8
TRAV_149
62
0
66
1
70
9
0
VERTEX
8
TRAV_149
10
75.000000
20
122.765772
30
6.525418
0
VERTEX
8
TRAV_149
10
75.000000
20
127.409959
30
3.722707
0
VERTEX
8
TRAV_149
10
155.000000
20
127.409959
30
3.722707
0
VERTEX
8
TRAV_149
10
155.000000
20
122.765772
30
6.525418
0
SEQEND
0
POLYLINE
8
TRAV_149
62
0
66
1
70
9
0
VERTEX
8
TRAV_149
10
75.000000
20
118.610422
30
10.012068
0
VERTEX
8
TRAV_149
10
75.000000
20
122.765772
30
6.525418
0
VERTEX
8
TRAV_149
10
155.000000
20
122.765772
30
6.525418
0
VERTEX
8
TRAV_149
10
155.000000
20
118.610422
30
10.012068
0
SEQEND
0
POLYLINE
8
TRAV_149
62
0
66
1
70
9
0
VERTEX
8
TRAV_149
10
75.000000
20
115.043719
30
14.098912
0
VERTEX
8
TRAV_149
10
75.000000
20
118.610422
30
10.012068
0
VERTEX
8
TRAV_149
10
155.000000
20
118.610422
30
10.012068
0
VERTEX
8
TRAV_149
10
155.000000
20
115.043719
30
14.098912
0
SEQEND
0
POLYLINE
8
TRAV_149
62
0
66
1
70
9
0
VERTEX
8
TRAV_149
10
75.000000
20
112.151332
30
18.687785
0
VERTEX
8
TRAV_149
10
75.000000
20
115.043719
30
14.098912
0
VERTEX
8
TRAV_149
10
155.000000
20
115.043719
30
14.098912
0
VERTEX
8
TRAV_149
10
155.000000
20
112.151332
30
18.687785
0
SEQEND
0
POLYLINE
8
TRAV_149
62
0
66
1
70
9
0
VERTEX
8
TRAV_149
10
75.000000
20
110.002734
30
23.668467
0
VERTEX
8
TRAV_149
10
75.000000
20
112.151332
30
18.687785
0
VERTEX
8
TRAV_149
10
155.000000
20
112.151332
30
18.687785
0
VERTEX
8
TRAV_149
10
155.000000
20
110.002734
30
23.668467
0
SEQEND
0
POLYLINE
8
TRAV_149
62
0
66
1
70
9
0
VERTEX
8
TRAV_149
10
75.000000
20
108.649534
30
28.921324
0
VERTEX
8
TRAV_149
10
75.000000
20
110.002734
30
23.668467
0
VERTEX
8
TRAV_149
10
155.000000
20
110.002734
30
23.668467
0
VERTEX
8
TRAV_149
10
155.000000
20
108.649534
30
28.921324
0
SEQEND
0
POLYLINE
8
TRAV_149
62
0
66
1
70
9
0
VERTEX
8
TRAV_149
10
75.000000
20
935.000000
30
750.000000
0
VERTEX
8
TRAV_149
10
155.000000
20
935.000000
30
750.000000
0
VERTEX
8
TRAV_149
10
155.000000
20
950.000000
30
750.000000
0
VERTEX
8
TRAV_149
10
75.000000
20
950.000000
30
750.000000
0
SEQEND
0
POLYLINE
8
TRAV_149
62
0
66
1
70
9
0
VERTEX
8
TRAV_149
10
75.000000
20
0.000000
30
750.000000
0
VERTEX
8
TRAV_149
10
155.000000
20
0.000000
30
750.000000
0
VERTEX
8
TRAV_149
10
155.000000
20
15.000000
30
750.000000
0
VERTEX
8
TRAV_149
10
75.000000
20
15.000000
30
750.000000
0
SEQEND
0
POLYLINE
8
TRAV_149
62
0
66
1
70
9
0
VERTEX
8
TRAV_149
10
75.000000
20
809.251617
30
16.289307
0
VERTEX
8
TRAV_149
10
75.000000
20
805.179823
30
15.324274
0
VERTEX
8
TRAV_149
10
155.000000
20
805.179823
30
15.324274
0
SEQEND
0
POLYLINE
8
TRAV_149
62
0
66
1
70
9
0
VERTEX
8
TRAV_149
10
155.000000
20
809.251617
30
16.289307
0
VERTEX
8
TRAV_149
10
75.000000
20
809.251617
30
16.289307
0
VERTEX
8
TRAV_149
10
155.000000
20
805.179823
30
15.324274
0
SEQEND
0
POLYLINE
8
TRAV_149
62
0
66
1
70
9
0
VERTEX
8
TRAV_149
10
75.000000
20
813.125393
30
17.871919
0
VERTEX
8
TRAV_149
10
75.000000
20
809.251617
30
16.289307
0
VERTEX
8
TRAV_149
10
155.000000
20
809.251617
30
16.289307
0
SEQEND
0
POLYLINE
8
TRAV_149
62
0
66
1
70
9
0
VERTEX
8
TRAV_149
10
155.000000
20
813.125393
30
17.871919
0
VERTEX
8
TRAV_149
10
75.000000
20
813.125393
30
17.871919
0
VERTEX
8
TRAV_149
10
155.000000
20
809.251617
30
16.289307
0
SEQEND
0
POLYLINE
8
TRAV_149
62
0
66
1
70
9
0
VERTEX
8
TRAV_149
10
75.000000
20
816.708101
30
20.034094
0
VERTEX
8
TRAV_149
10
75.000000
20
813.125393
30
17.871919
0
VERTEX
8
TRAV_149
10
155.000000
20
813.125393
30
17.871919
0
SEQEND
0
POLYLINE
8
TRAV_149
62
0
66
1
70
9
0
VERTEX
8
TRAV_149
10
155.000000
20
816.708101
30
20.034094
0
VERTEX
8
TRAV_149
10
75.000000
20
816.708101
30
20.034094
0
VERTEX
8
TRAV_149
10
155.000000
20
813.125393
30
17.871919
0
SEQEND
0
POLYLINE
8
TRAV_149
62
0
66
1
70
9
0
VERTEX
8
TRAV_149
10
75.000000
20
819.913684
30
22.723897
0
VERTEX
8
TRAV_149
10
75.000000
20
816.708101
30
20.034094
0
VERTEX
8
TRAV_149
10
155.000000
20
816.708101
30
20.034094
0
SEQEND
0
POLYLINE
8
TRAV_149
62
0
66
1
70
9
0
VERTEX
8
TRAV_149
10
155.000000
20
819.913684
30
22.723897
0
VERTEX
8
TRAV_149
10
75.000000
20
819.913684
30
22.723897
0
VERTEX
8
TRAV_149
10
155.000000
20
816.708101
30
20.034094
0
SEQEND
0
POLYLINE
8
TRAV_149
62
0
66
1
70
9
0
VERTEX
8
TRAV_149
10
75.000000
20
822.665142
30
25.876718
0
VERTEX
8
TRAV_149
10
75.000000
20
819.913684
30
22.723897
0
VERTEX
8
TRAV_149
10
155.000000
20
819.913684
30
22.723897
0
SEQEND
0
POLYLINE
8
TRAV_149
62
0
66
1
70
9
0
VERTEX
8
TRAV_149
10
155.000000
20
822.665142
30
25.876718
0
VERTEX
8
TRAV_149
10
75.000000
20
822.665142
30
25.876718
0
VERTEX
8
TRAV_149
10
155.000000
20
819.913684
30
22.723897
0
SEQEND
0
POLYLINE
8
TRAV_149
62
0
66
1
70
9
0
VERTEX
8
TRAV_149
10
75.000000
20
824.896384
30
29.416825
0
VERTEX
8
TRAV_149
10
75.000000
20
822.665142
30
25.876718
0
VERTEX
8
TRAV_149
10
155.000000
20
822.665142
30
25.876718
0
SEQEND
0
POLYLINE
8
TRAV_149
62
0
66
1
70
9
0
VERTEX
8
TRAV_149
10
155.000000
20
824.896384
30
29.416825
0
VERTEX
8
TRAV_149
10
75.000000
20
824.896384
30
29.416825
0
VERTEX
8
TRAV_149
10
155.000000
20
822.665142
30
25.876718
0
SEQEND
0
POLYLINE
8
TRAV_149
62
0
66
1
70
9
0
VERTEX
8
TRAV_149
10
75.000000
20
826.553816
30
33.259184
0
VERTEX
8
TRAV_149
10
75.000000
20
824.896384
30
29.416825
0
VERTEX
8
TRAV_149
10
155.000000
20
824.896384
30
29.416825
0
SEQEND
0
POLYLINE
8
TRAV_149
62
0
66
1
70
9
0
VERTEX
8
TRAV_149
10
155.000000
20
826.553816
30
33.259184
0
VERTEX
8
TRAV_149
10
75.000000
20
826.553816
30
33.259184
0
VERTEX
8
TRAV_149
10
155.000000
20
824.896384
30
29.416825
0
SEQEND
0
POLYLINE
8
TRAV_149
62
0
66
1
70
9
0
VERTEX
8
TRAV_149
10
155.000000
20
140.748383
30
16.289307
0
VERTEX
8
TRAV_149
10
155.000000
20
144.820177
30
15.324274
0
VERTEX
8
TRAV_149
10
75.000000
20
144.820177
30
15.324274
0
SEQEND
0
POLYLINE
8
TRAV_149
62
0
66
1
70
9
0
VERTEX
8
TRAV_149
10
75.000000
20
140.748383
30
16.289307
0
VERTEX
8
TRAV_149
10
155.000000
20
140.748383
30
16.289307
0
VERTEX
8
TRAV_149
10
75.000000
20
144.820177
30
15.324274
0
SEQEND
0
POLYLINE
8
TRAV_149
62
0
66
1
70
9
0
VERTEX
8
TRAV_149
10
155.000000
20
136.874607
30
17.871919
0
VERTEX
8
TRAV_149
10
155.000000
20
140.748383
30
16.289307
0
VERTEX
8
TRAV_149
10
75.000000
20
140.748383
30
16.289307
0
SEQEND
0
POLYLINE
8
TRAV_149
62
0
66
1
70
9
0
VERTEX
8
TRAV_149
10
75.000000
20
136.874607
30
17.871919
0
VERTEX
8
TRAV_149
10
155.000000
20
136.874607
30
17.871919
0
VERTEX
8
TRAV_149
10
75.000000
20
140.748383
30
16.289307
0
SEQEND
0
POLYLINE
8
TRAV_149
62
0
66
1
70
9
0
VERTEX
8
TRAV_149
10
155.000000
20
133.291899
30
20.034094
0
VERTEX
8
TRAV_149
10
155.000000
20
136.874607
30
17.871919
0
VERTEX
8
TRAV_149
10
75.000000
20
136.874607
30
17.871919
0
SEQEND
0
POLYLINE
8
TRAV_149
62
0
66
1
70
9
0
VERTEX
8
TRAV_149
10
75.000000
20
133.291899
30
20.034094
0
VERTEX
8
TRAV_149
10
155.000000
20
133.291899
30
20.034094
0
VERTEX
8
TRAV_149
10
75.000000
20
136.874607
30
17.871919
0
SEQEND
0
POLYLINE
8
TRAV_149
62
0
66
1
70
9
0
VERTEX
8
TRAV_149
10
155.000000
20
130.086316
30
22.723897
0
VERTEX
8
TRAV_149
10
155.000000
20
133.291899
30
20.034094
0
VERTEX
8
TRAV_149
10
75.000000
20
133.291899
30
20.034094
0
SEQEND
0
POLYLINE
8
TRAV_149
62
0
66
1
70
9
0
VERTEX
8
TRAV_149
10
75.000000
20
130.086316
30
22.723897
0
VERTEX
8
TRAV_149
10
155.000000
20
130.086316
30
22.723897
0
VERTEX
8
TRAV_149
10
75.000000
20
133.291899
30
20.034094
0
SEQEND
0
POLYLINE
8
TRAV_149
62
0
66
1
70
9
0
VERTEX
8
TRAV_149
10
155.000000
20
127.334858
30
25.876718
0
VERTEX
8
TRAV_149
10
155.000000
20
130.086316
30
22.723897
0
VERTEX
8
TRAV_149
10
75.000000
20
130.086316
30
22.723897
0
SEQEND
0
POLYLINE
8
TRAV_149
62
0
66
1
70
9
0
VERTEX
8
TRAV_149
10
75.000000
20
127.334858
30
25.876718
0
VERTEX
8
TRAV_149
10
155.000000
20
127.334858
30
25.876718
0
VERTEX
8
TRAV_149
10
75.000000
20
130.086316
30
22.723897
0
SEQEND
0
POLYLINE
8
TRAV_149
62
0
66
1
70
9
0
VERTEX
8
TRAV_149
10
155.000000
20
125.103616
30
29.416825
0
VERTEX
8
TRAV_149
10
155.000000
20
127.334858
30
25.876718
0
VERTEX
8
TRAV_149
10
75.000000
20
127.334858
30
25.876718
0
SEQEND
0
POLYLINE
8
TRAV_149
62
0
66
1
70
9
0
VERTEX
8
TRAV_149
10
75.000000
20
125.103616
30
29.416825
0
VERTEX
8
TRAV_149
10
155.000000
20
125.103616
30
29.416825
0
VERTEX
8
TRAV_149
10
75.000000
20
127.334858
30
25.876718
0
SEQEND
0
POLYLINE
8
TRAV_149
62
0
66
1
70
9
0
VERTEX
8
TRAV_149
10
155.000000
20
123.446184
30
33.259184
0
VERTEX
8
TRAV_149
10
155.000000
20
125.103616
30
29.416825
0
VERTEX
8
TRAV_149
10
75.000000
20
125.103616
30
29.416825
0
SEQEND
0
POLYLINE
8
TRAV_149
62
0
66
1
70
9
0
VERTEX
8
TRAV_149
10
75.000000
20
123.446184
30
33.259184
0
VERTEX
8
TRAV_149
10
155.000000
20
123.446184
30
33.259184
0
VERTEX
8
TRAV_149
10
75.000000
20
125.103616
30
29.416825
0
SEQEND
0
POLYLINE
8
TRAV_149
62
0
66
1
70
9
0
VERTEX
8
TRAV_149
10
75.000000
20
934.705613
30
644.889673
0
VERTEX
8
TRAV_149
10
75.000000
20
934.615675
30
644.275673
0
VERTEX
8
TRAV_149
10
155.000000
20
934.615675
30
644.275673
0
SEQEND
0
POLYLINE
8
TRAV_149
62
0
66
1
70
9
0
VERTEX
8
TRAV_149
10
155.000000
20
934.705613
30
644.889673
0
VERTEX
8
TRAV_149
10
75.000000
20
934.705613
30
644.889673
0
VERTEX
8
TRAV_149
10
155.000000
20
934.615675
30
644.275673
0
SEQEND
0
POLYLINE
8
TRAV_149
62
0
66
1
70
9
0
VERTEX
8
TRAV_149
10
75.000000
20
934.783627
30
645.505301
0
VERTEX
8
TRAV_149
10
75.000000
20
934.705613
30
644.889673
0
VERTEX
8
TRAV_149
10
155.000000
20
934.705613
30
644.889673
0
SEQEND
0
POLYLINE
8
TRAV_149
62
0
66
1
70
9
0
VERTEX
8
TRAV_149
10
155.000000
20
934.783627
30
645.505301
0
VERTEX
8
TRAV_149
10
75.000000
20
934.783627
30
645.505301
0
VERTEX
8
TRAV_149
10
155.000000
20
934.705613
30
644.889673
0
SEQEND
0
POLYLINE
8
TRAV_149
62
0
66
1
70
9
0
VERTEX
8
TRAV_149
10
75.000000
20
934.849689
30
646.122326
0
VERTEX
8
TRAV_149
10
75.000000
20
934.783627
30
645.505301
0
VERTEX
8
TRAV_149
10
155.000000
20
934.783627
30
645.505301
0
SEQEND
0
POLYLINE
8
TRAV_149
62
0
66
1
70
9
0
VERTEX
8
TRAV_149
10
155.000000
20
934.849689
30
646.122326
0
VERTEX
8
TRAV_149
10
75.000000
20
934.849689
30
646.122326
0
VERTEX
8
TRAV_149
10
155.000000
20
934.783627
30
645.505301
0
SEQEND
0
POLYLINE
8
TRAV_149
62
0
66
1
70
9
0
VERTEX
8
TRAV_149
10
75.000000
20
934.903774
30
646.740517
0
VERTEX
8
TRAV_149
10
75.000000
20
934.849689
30
646.122326
0
VERTEX
8
TRAV_149
10
155.000000
20
934.849689
30
646.122326
0
SEQEND
0
POLYLINE
8
TRAV_149
62
0
66
1
70
9
0
VERTEX
8
TRAV_149
10
155.000000
20
934.903774
30
646.740517
0
VERTEX
8
TRAV_149
10
75.000000
20
934.903774
30
646.740517
0
VERTEX
8
TRAV_149
10
155.000000
20
934.849689
30
646.122326
0
SEQEND
0
POLYLINE
8
TRAV_149
62
0
66
1
70
9
0
VERTEX
8
TRAV_149
10
75.000000
20
934.945861
30
647.359640
0
VERTEX
8
TRAV_149
10
75.000000
20
934.903774
30
646.740517
0
VERTEX
8
TRAV_149
10
155.000000
20
934.903774
30
646.740517
0
SEQEND
0
POLYLINE
8
TRAV_149
62
0
66
1
70
9
0
VERTEX
8
TRAV_149
10
155.000000
20
934.945861
30
647.359640
0
VERTEX
8
TRAV_149
10
75.000000
20
934.945861
30
647.359640
0
VERTEX
8
TRAV_149
10
155.000000
20
934.903774
30
646.740517
0
SEQEND
0
POLYLINE
8
TRAV_149
62
0
66
1
70
9
0
VERTEX
8
TRAV_149
10
75.000000
20
934.975934
30
647.979462
0
VERTEX
8
TRAV_149
10
75.000000
20
934.945861
30
647.359640
0
VERTEX
8
TRAV_149
10
155.000000
20
934.945861
30
647.359640
0
SEQEND
0
POLYLINE
8
TRAV_149
62
0
66
1
70
9
0
VERTEX
8
TRAV_149
10
155.000000
20
934.975934
30
647.979462
0
VERTEX
8
TRAV_149
10
75.000000
20
934.975934
30
647.979462
0
VERTEX
8
TRAV_149
10
155.000000
20
934.945861
30
647.359640
0
SEQEND
0
POLYLINE
8
TRAV_149
62
0
66
1
70
9
0
VERTEX
8
TRAV_149
10
75.000000
20
934.993983
30
648.599752
0
VERTEX
8
TRAV_149
10
75.000000
20
934.975934
30
647.979462
0
VERTEX
8
TRAV_149
10
155.000000
20
934.975934
30
647.979462
0
SEQEND
0
POLYLINE
8
TRAV_149
62
0
66
1
70
9
0
VERTEX
8
TRAV_149
10
155.000000
20
934.993983
30
648.599752
0
VERTEX
8
TRAV_149
10
75.000000
20
934.993983
30
648.599752
0
VERTEX
8
TRAV_149
10
155.000000
20
934.975934
30
647.979462
0
SEQEND
0
POLYLINE
8
TRAV_149
62
0
66
1
70
9
0
VERTEX
8
TRAV_149
10
155.000000
20
15.294387
30
644.889673
0
VERTEX
8
TRAV_149
10
155.000000
20
15.384325
30
644.275673
0
VERTEX
8
TRAV_149
10
75.000000
20
15.384325
30
644.275673
0
SEQEND
0
POLYLINE
8
TRAV_149
62
0
66
1
70
9
0
VERTEX
8
TRAV_149
10
75.000000
20
15.294387
30
644.889673
0
VERTEX
8
TRAV_149
10
155.000000
20
15.294387
30
644.889673
0
VERTEX
8
TRAV_149
10
75.000000
20
15.384325
30
644.275673
0
SEQEND
0
POLYLINE
8
TRAV_149
62
0
66
1
70
9
0
VERTEX
8
TRAV_149
10
155.000000
20
15.216373
30
645.505301
0
VERTEX
8
TRAV_149
10
155.000000
20
15.294387
30
644.889673
0
VERTEX
8
TRAV_149
10
75.000000
20
15.294387
30
644.889673
0
SEQEND
0
POLYLINE
8
TRAV_149
62
0
66
1
70
9
0
VERTEX
8
TRAV_149
10
75.000000
20
15.216373
30
645.505301
0
VERTEX
8
TRAV_149
10
155.000000
20
15.216373
30
645.505301
0
VERTEX
8
TRAV_149
10
75.000000
20
15.294387
30
644.889673
0
SEQEND
0
POLYLINE
8
TRAV_149
62
0
66
1
70
9
0
VERTEX
8
TRAV_149
10
155.000000
20
15.150311
30
646.122326
0
VERTEX
8
TRAV_149
10
155.000000
20
15.216373
30
645.505301
0
VERTEX
8
TRAV_149
10
75.000000
20
15.216373
30
645.505301
0
SEQEND
0
POLYLINE
8
TRAV_149
62
0
66
1
70
9
0
VERTEX
8
TRAV_149
10
75.000000
20
15.150311
30
646.122326
0
VERTEX
8
TRAV_149
10
155.000000
20
15.150311
30
646.122326
0
VERTEX
8
TRAV_149
10
75.000000
20
15.216373
30
645.505301
0
SEQEND
0
POLYLINE
8
TRAV_149
62
0
66
1
70
9
0
VERTEX
8
TRAV_149
10
155.000000
20
15.096226
30
646.740517
0
VERTEX
8
TRAV_149
10
155.000000
20
15.150311
30
646.122326
0
VERTEX
8
TRAV_149
10
75.000000
20
15.150311
30
646.122326
0
SEQEND
0
POLYLINE
8
TRAV_149
62
0
66
1
70
9
0
VERTEX
8
TRAV_149
10
75.000000
20
15.096226
30
646.740517
0
VERTEX
8
TRAV_149
10
155.000000
20
15.096226
30
646.740517
0
VERTEX
8
TRAV_149
10
75.000000
20
15.150311
30
646.122326
0
SEQEND
0
POLYLINE
8
TRAV_149
62
0
66
1
70
9
0
VERTEX
8
TRAV_149
10
155.000000
20
15.054139
30
647.359640
0
VERTEX
8
TRAV_149
10
155.000000
20
15.096226
30
646.740517
0
VERTEX
8
TRAV_149
10
75.000000
20
15.096226
30
646.740517
0
SEQEND
0
POLYLINE
8
TRAV_149
62
0
66
1
70
9
0
VERTEX
8
TRAV_149
10
75.000000
20
15.054139
30
647.359640
0
VERTEX
8
TRAV_149
10
155.000000
20
15.054139
30
647.359640
0
VERTEX
8
TRAV_149
10
75.000000
20
15.096226
30
646.740517
0
SEQEND
0
POLYLINE
8
TRAV_149
62
0
66
1
70
9
0
VERTEX
8
TRAV_149
10
155.000000
20
15.024066
30
647.979462
0
VERTEX
8
TRAV_149
10
155.000000
20
15.054139
30
647.359640
0
VERTEX
8
TRAV_149
10
75.000000
20
15.054139
30
647.359640
0
SEQEND
0
POLYLINE
8
TRAV_149
62
0
66
1
70
9
0
VERTEX
8
TRAV_149
10
75.000000
20
15.024066
30
647.979462
0
VERTEX
8
TRAV_149
10
155.000000
20
15.024066
30
647.979462
0
VERTEX
8
TRAV_149
10
75.000000
20
15.054139
30
647.359640
0
SEQEND
0
POLYLINE
8
TRAV_149
62
0
66
1
70
9
0
VERTEX
8
TRAV_149
10
155.000000
20
15.006017
30
648.599752
0
VERTEX
8
TRAV_149
10
155.000000
20
15.024066
30
647.979462
0
VERTEX
8
TRAV_149
10
75.000000
20
15.024066
30
647.979462
0
SEQEND
0
POLYLINE
8
TRAV_149
62
0
66
1
70
9
0
VERTEX
8
TRAV_149
10
75.000000
20
15.006017
30
648.599752
0
VERTEX
8
TRAV_149
10
155.000000
20
15.006017
30
648.599752
0
VERTEX
8
TRAV_149
10
75.000000
20
15.024066
30
647.979462
0
SEQEND
0
POLYLINE
8
TRAV_149
62
0
66
1
70
9
0
VERTEX
8
TRAV_149
10
1645.000000
20
950.000000
30
695.000000
0
VERTEX
8
TRAV_149
10
155.000000
20
950.000000
30
695.000000
0
VERTEX
8
TRAV_149
10
155.000000
20
950.000000
30
750.000000
0
VERTEX
8
TRAV_149
10
1645.000000
20
950.000000
30
750.000000
0
SEQEND
0
POLYLINE
8
TRAV_149
62
0
66
1
70
9
0
VERTEX
8
TRAV_149
10
75.000000
20
950.000000
30
695.000000
0
VERTEX
8
TRAV_149
10
0.000000
20
950.000000
30
695.000000
0
VERTEX
8
TRAV_149
10
0.000000
20
950.000000
30
750.000000
0
VERTEX
8
TRAV_149
10
75.000000
20
950.000000
30
750.000000
0
SEQEND
0
POLYLINE
8
TRAV_149
62
0
66
1
70
9
0
VERTEX
8
TRAV_149
10
0.000000
20
830.000000
30
695.000000
0
VERTEX
8
TRAV_149
10
0.000000
20
950.000000
30
695.000000
0
VERTEX
8
TRAV_149
10
75.000000
20
950.000000
30
695.000000
0
VERTEX
8
TRAV_149
10
75.000000
20
935.000000
30
695.000000
0
VERTEX
8
TRAV_149
10
155.000000
20
935.000000
30
695.000000
0
VERTEX
8
TRAV_149
10
155.000000
20
950.000000
30
695.000000
0
VERTEX
8
TRAV_149
10
1645.000000
20
950.000000
30
695.000000
0
VERTEX
8
TRAV_149
10
1645.000000
20
935.000000
30
695.000000
0
VERTEX
8
TRAV_149
10
1725.000000
20
935.000000
30
695.000000
0
VERTEX
8
TRAV_149
10
1725.000000
20
950.000000
30
695.000000
0
VERTEX
8
TRAV_149
10
1800.000000
20
950.000000
30
695.000000
0
VERTEX
8
TRAV_149
10
1800.000000
20
830.000000
30
695.000000
0
SEQEND
0
POLYLINE
8
TRAV_149
62
0
66
1
70
9
0
VERTEX
8
TRAV_149
10
0.000000
20
830.000000
30
750.000000
0
VERTEX
8
TRAV_149
10
1800.000000
20
830.000000
30
750.000000
0
VERTEX
8
TRAV_149
10
1800.000000
20
950.000000
30
750.000000
0
VERTEX
8
TRAV_149
10
1725.000000
20
950.000000
30
750.000000
0
VERTEX
8
TRAV_149
10
1725.000000
20
935.000000
30
750.000000
0
VERTEX
8
TRAV_149
10
1645.000000
20
935.000000
30
750.000000
0
VERTEX
8
TRAV_149
10
1645.000000
20
950.000000
30
750.000000
0
VERTEX
8
TRAV_149
10
155.000000
20
950.000000
30
750.000000
0
VERTEX
8
TRAV_149
10
155.000000
20
935.000000
30
750.000000
0
VERTEX
8
TRAV_149
10
75.000000
20
935.000000
30
750.000000
0
VERTEX
8
TRAV_149
10
75.000000
20
950.000000
30
750.000000
0
VERTEX
8
TRAV_149
10
0.000000
20
950.000000
30
750.000000
0
SEQEND
0
POLYLINE
8
TRAV_149
62
0
66
1
70
9
0
VERTEX
8
TRAV_149
10
155.000000
20
935.000000
30
695.000000
0
VERTEX
8
TRAV_149
10
155.000000
20
935.000000
30
750.000000
0
VERTEX
8
TRAV_149
10
155.000000
20
950.000000
30
750.000000
0
VERTEX
8
TRAV_149
10
155.000000
20
950.000000
30
695.000000
0
SEQEND
0
POLYLINE
8
TRAV_149
62
0
66
1
70
9
0
VERTEX
8
TRAV_149
10
75.000000
20
950.000000
30
695.000000
0
VERTEX
8
TRAV_149
10
75.000000
20
950.000000
30
750.000000
0
VERTEX
8
TRAV_149
10
75.000000
20
935.000000
30
750.000000
0
VERTEX
8
TRAV_149
10
75.000000
20
935.000000
30
695.000000
0
SEQEND
0
POLYLINE
8
TRAV_149
62
0
66
1
70
9
0
VERTEX
8
TRAV_149
10
75.000000
20
935.000000
30
695.000000
0
VERTEX
8
TRAV_149
10
75.000000
20
935.000000
30
750.000000
0
VERTEX
8
TRAV_149
10
155.000000
20
935.000000
30
750.000000
0
VERTEX
8
TRAV_149
10
155.000000
20
935.000000
30
695.000000
0
SEQEND
0
POLYLINE
8
TRAV_149
62
0
66
1
70
9
0
VERTEX
8
TRAV_149
10
1800.000000
20
950.000000
30
695.000000
0
VERTEX
8
TRAV_149
10
1725.000000
20
950.000000
30
695.000000
0
VERTEX
8
TRAV_149
10
1725.000000
20
950.000000
30
750.000000
0
VERTEX
8
TRAV_149
10
1800.000000
20
950.000000
30
750.000000
0
SEQEND
0
POLYLINE
8
TRAV_149
62
0
66
1
70
9
0
VERTEX
8
TRAV_149
10
1725.000000
20
935.000000
30
695.000000
0
VERTEX
8
TRAV_149
10
1725.000000
20
935.000000
30
750.000000
0
VERTEX
8
TRAV_149
10
1725.000000
20
950.000000
30
750.000000
0
VERTEX
8
TRAV_149
10
1725.000000
20
950.000000
30
695.000000
0
SEQEND
0
POLYLINE
8
TRAV_149
62
0
66
1
70
9
0
VERTEX
8
TRAV_149
10
1645.000000
20
950.000000
30
695.000000
0
VERTEX
8
TRAV_149
10
1645.000000
20
950.000000
30
750.000000
0
VERTEX
8
TRAV_149
10
1645.000000
20
935.000000
30
750.000000
0
VERTEX
8
TRAV_149
10
1645.000000
20
935.000000
30
695.000000
0
SEQEND
0
POLYLINE
8
TRAV_149
62
0
66
1
70
9
0
VERTEX
8
TRAV_149
10
1645.000000
20
935.000000
30
695.000000
0
VERTEX
8
TRAV_149
10
1645.000000
20
935.000000
30
750.000000
0
VERTEX
8
TRAV_149
10
1725.000000
20
935.000000
30
750.000000
0
VERTEX
8
TRAV_149
10
1725.000000
20
935.000000
30
695.000000
0
SEQEND
0
POLYLINE
8
TRAV_149
62
0
66
1
70
9
0
VERTEX
8
TRAV_149
10
0.000000
20
830.000000
30
695.000000
0
VERTEX
8
TRAV_149
10
1800.000000
20
830.000000
30
695.000000
0
VERTEX
8
TRAV_149
10
1800.000000
20
830.000000
30
750.000000
0
VERTEX
8
TRAV_149
10
0.000000
20
830.000000
30
750.000000
0
SEQEND
0
POLYLINE
8
TRAV_149
62
0
66
1
70
9
0
VERTEX
8
TRAV_149
10
1800.000000
20
830.000000
30
695.000000
0
VERTEX
8
TRAV_149
10
1800.000000
20
950.000000
30
695.000000
0
VERTEX
8
TRAV_149
10
1800.000000
20
950.000000
30
750.000000
0
VERTEX
8
TRAV_149
10
1800.000000
20
830.000000
30
750.000000
0
SEQEND
0
POLYLINE
8
TRAV_149
62
0
66
1
70
9
0
VERTEX
8
TRAV_149
10
0.000000
20
950.000000
30
695.000000
0
VERTEX
8
TRAV_149
10
0.000000
20
830.000000
30
695.000000
0
VERTEX
8
TRAV_149
10
0.000000
20
830.000000
30
750.000000
0
VERTEX
8
TRAV_149
10
0.000000
20
950.000000
30
750.000000
0
SEQEND
0
ENDSEC
0
EOF
